PrimaNota.ru - самый крупный в мире бесплатный архив песенных текстов, аккордов, табулатур и нот


Equinox - Watching You - таба, видео

Регистрация Запомнить меня
Войти через:  Facebook Google Twitter Vk Yandex Mail.ru

Equinox - Watching You - таба, видео

Печатать
Просмотров: 84
----------------------------------------------------------------------------
                             Watching You - Equinox
----------------------------------------------------------------------------
Tabbed by:bassmastaman(Andrew Y)
Email:skatepunk@hotmail.co.uk

Tuning:Drop D

Intro Rhythm
e|------------------------------------------------------------------|
B|-------0---------1--------------3---------------------------------|
G|---------0---------0-------0-------0-----0------------------------|
D|-----2--------2---------4-----4-------4---------------------------|
A|---2--------3---------5-------------------------------------------|
D|------------------------------------------------------------------|

Intro Solo
e|--------------------------------------------------------------------------|
B|--//~12~-~10~-8-7-~7~----~12~-~10~-14-15---15-14-12-14-10--15-14-12-14-10-|
G|--------------------------------------------------------------------------|
D|--------------------------------------------------------------------------|
A|--------------------------------------------------------------------------|
D|--------------------------------------------------------------------------|

e|--------------------------------------------------------------------------|
B|-~15~-~17~-~19~-----------------------------------------------------------|
G|--------------------------------------------------------------------------|
D|--------------------------------------------------------------------------|
A|--------------------------------------------------------------------------|
D|--------------------------------------------------------------------------|
Repeat intro solo twice

Verse
e|-----------------------------------------------------------------|
B|-------0---------1--------------3--------------------------------|
G|---------0---------0-------0-------0-----0-----------------------|
D|-----2--------2---------4-----4-------4--------------------------|
A|---2--------3---------5------------------------------------------|
D|-----------------------------------------------------------------|

Link
e|--------------------------------------------------------------------------|
B|--------------------------------------------------------------------------|
G|--------------------------------------------------------------------------|
D|-0------0------0------0---------------------------------------------------|
A|---4-------4------4-----4-------------------------------------------------|
D|-----5--------5------5----5-----------------------------------------------|

Chorus
e|-------------------------------------------------------|
B|-------------------------------------------------------|
G|-4444-5555-77777777-4444-5555-77777777-----------------|
D|-4444-5555-77777777-4444-5555-77777777-----------------|
A|-2222-3333-55555555-2222-3333-55555555-----------------|
D|-------------------------------------------------------|
Добавлено: 18.06.2012
Вам также может быть интересно:
Другие материалы по этой песне:
  • Аккорды и текст

Страница создана 18.06.2012
http://primanota.ru/equinox/watching-you-chords.htm
Привет, Гость.
Предлагаем пройти революционный курс по гитаре.
Подарок от PrimaNota.Ru, забирай!