PrimaNota.ru - самый крупный в мире бесплатный архив песенных текстов, аккордов, табулатур и нот


Equilibrium - Back To Me - бас-таба, видео

Регистрация Запомнить меня
Войти через:  Facebook Google Twitter Vk Yandex Mail.ru

Equilibrium - Back To Me - бас-таба, видео

Печатать
Просмотров: 148
-------------------------------------------------------------------------------
			     BACK TO ME - Equilibrium
-------------------------------------------------------------------------------

Tabbed By : Tom Sheldon
e-mail: brother_supirior@hotmail.com

Tuning: Standard - E A D G

INTRO:

G|--------------------------------------------------------------------------------|
D|--------------------------------------------------------------------------------|
A|3-33-387--------------------------------3-33-387----------------------------87--|
E|----------3-33-387--5-55-587--1-11-187------------3-33-387--5-55-587--1-11-1----|

CHORUS 1:

G|--------------------------------------------------------------------------------|
D|--------------------------------------------------------------------------------|
A|3-33-387--------------------------------3-33-387----------------------------87--|
E|----------3-33-387--5-55-587--1-11-187------------3-33-387--5-55-587--1-11-1----|

BRIDGE:

G|---------------------------------------|
D|---------------------------------------|
A|3--3--3--------------------------------|
E|----------3--3--3---5--5--5---1--1--1--|

VERSE 1:

G|--------------------------------------------------------------------------------|
D|--------------------------------------------------------------------------------|
A|--------------------------------------------------------------------------------|
E|3--3--3---1--1--1---4--4--4---5--5--5---3--3--3---1--1--1---4--4--4---55555555--|

G|--------------------------------------------------------------------------------|
D|--------------------------------------------------------------------------------|
A|--------------------------------------------------------------------------------|
E|3-33-33---8-88-88---4-44-44---3-33-33---3-33-33---8-88-88---44445555--66667777--|

CHORUS 2:

G|--------------------------------------------------------------------------------|
D|--------------------------------------------------------------------------------|
A|3-33-387--------------------------------3-33-387----------------------------87--|
E|----------3-33-387--5-55-587--1-11-187------------3-33-387--5-55-587--1-11-1----|

BRIDGE:

G|---------------------------------------|
D|---------------------------------------|
A|3--3--3--------------------------------|
E|----------3--3--3---5--5--5---1--1--1--|

VERSE 2:

G|--------------------------------------------------------------------------------|
D|--------------------------------------------------------------------------------|
A|--------------------------------------------------------------------------------|
E|3--3--3---1--1--1---4--4--4---5--5--5---3--3--3---1--1--1---4--4--4---55555555--|

G|--------------------------------------------------------------------------------|
D|--------------------------------------------------------------------------------|
A|--------------------------------------------------------------------------------|
E|3-33-33---8-88-88---4-44-44---3-33-33---3-33-33---8-88-88---44445555--66667777--|

CHORUS 3:

G|--------------------------------------------------------------------------------|
D|--------------------------------------------------------------------------------|
A|3-33-387--------------------------------3-33-387----------------------------87--|
E|----------3-33-387--5-55-587--1-11-187------------3-33-387--5-55-587--1-11-1----|

SOLO:

G|--------------------------------------------------------------------------------|
D|----------5-55-553--7-77-775--3-33-332------------5-55-553--7-77-775--3-33-332--|
A|3-33-387--------------------------------3-33-387--------------------------------|
E|--------------------------------------------------------------------------------|

VERSE 3:

G|--------------------------------------------------------------------------------|
D|--------------------------------------------------------------------------------|
A|--------------------------------------------------------------------------------|
E|3~--------1~--------4~--------5~--------3~--------1~--------4~--------55555-12\-| < Twelve

G|--------------------------------------------------------------------------------|
D|--------------------------------------------------------------------------------|
A|--------------------------------------------------------------------------------|
E|3-33-33---8-88-88---4-44-44---3-33-33---3-33-33---8-88-88---44445555--66667777--|

CHORUS 4:

G|--------------------------------------------------------------------------------|
D|--------------------------------------------------------------------------------|
A|3-33-387--------------------------------3-33-387----------------------------87--|
E|----------3-33-387--5-55-587--1-11-187------------3-33-387--5-55-587--1-11-1----|

G|--------------------------------------------------------------------------------|
D|----------5-55-553--7-77-775--3-33-332------------5-55-553--7-77-775--9-99-997--|
A|3-33-387--------------------------------3-33-387--------------------------------|
E|--------------------------------------------------------------------------------|

OUTRO:

G|5--5--5----------------------------------------|
D|----------5--5--5---7--7--7---3~---------------|
A|---------------------------------------8~-7~-3~|
E|-----------------------------------------------|


| /  slide up
| \  slide down
| h  hammer-on
| p  pull-off
| ~  sustain
| +  harmonic
| x  Mute note
===============================================================================
Добавлено: 27.04.2012
Другие материалы по этой песне:
  • Аккорды и текст

Страница создана 27.04.2012
http://primanota.ru/equilibrium/back-to-me-chords.htm
Привет, Гость.
Предлагаем пройти революционный курс по гитаре.
Подарок от PrimaNota.Ru, забирай!