PrimaNota.ru - самый крупный в мире бесплатный архив песенных текстов, аккордов, табулатур и нот


Eppu Normaali - Joka Päivä Ja Joka Ikinen Yö - таба, видео

Регистрация Запомнить меня
Войти через:  Facebook Google Twitter Vk Yandex Mail.ru

Eppu Normaali - Joka Päivä Ja Joka Ikinen Yö - таба, видео

Печатать
Просмотров: 94
Авторы музыки: Mikko Syrjä
Авторы текста: Martti Syrjä
-------------------------------------------------------------------------------
                             Joka päivä ja joka ikinen yö - Eppu normaali
-------------------------------------------------------------------------------
Tabbed by: MikaJ 
E-mail:

Tuning: EADGBe


Kahen kitaran biisihän tämä tietenki ois mutta tämmöstä oon soitellu, ei varmasti ole ihan nuotilleen..


Intro:

e|---8-10-12-12-8~--------------------------------------------------------------|
B|---8-8--10-10-10~-12-10p8-8~8-------------------------------------8-----------|
G|--------------------------------9-7-7p5h7------------5-7~---------7-----------|
D|-----------------------------------------7-5-7~7------------------------------|
A|------------------------------------------------------------------------------|
E|------------------------------------------------------------------------------|


e|---12-12-8~-------------------------------------------------------------------|
B|---10-10--------12 10-8-8~~------8p10h8---8-----------------------------------|
G|----------------------------------------9---9-5~~----5h7-7h9-7-7h9------------|
D|------------------------------------------------------------------------------|
A|------------------------------------------------------------------------------|
E|------------------------------------------------------------------------------|

e|------------------------------------------------------------------------------|
B|------------------------------------------------------------------------------|
G|--9-9-5-5----------------5-----5--7-9-5-7-5---5-7-------7h9~7-7---------------|
D|--7-7-7-7--9-7-5-5~- 5h7---5h7-------------7----------------------------------|
A|------------------------------------------------------------------------------|
E|------------------------------------------------------------------------------|

e|---12-12-8~-----------------------------8-10-10~-18-10-10~-8-10-10~-----------|
B|---10-10----12-10-8-8~---8---8h10-8h10~---------------------------------------|
G|-----------------------9------------------------------------------------------|
D|------------------------------------------------------------------------------|
A|------------------------------------------------------------------------------|
E|------------------------------------------------------------------------------|


Verseä:

Demppausta soinnuissa


      Meillä on maailma,             ja tuulet sen

    Am          F           C           G
e|--5--5--5--5--1--1--1--1--3--3--3--3--3--3--3--3-----12-8---------------------|
B|--5--5--5--5--1--1--1--1--5--5--5--5--3--3--3--3-----10---12-10p8---8---10p8~-|
G|--5--5--5--5--2--2--2--2--5--5--5--5--4--4--4--4------------------9---9-------|
D|--7--7--7--7--3--3--3--3--5--5--5--5--5--5--5--5------------------------------|
A|--7--7--7--7--3--3--3--3--3--3--3--3--5--5--5--5------------------------------|
E|--5--5--5--5--1--1--1--1--x--x--x--x--3--3--3--3------------------------------|

       Sinulle  laulan          ja sinä kuulet sen

    Am          F           C           
e|--5--5--5--5--1--1--1--1--3--3--3--3---------------10---12p10-----------------|
B|--5--5--5--5--1--1--1--1--5--5--5--5------10h12p10-----------12p10---8---8~---|
G|--5--5--5--5--2--2--2--2--5--5--5--5----------------------------------9-------|
D|--7--7--7--7--3--3--3--3--5--5--5--5------------------------------------------|
A|--7--7--7--7--3--3--3--3--3--3--3--3------------------------------------------|
E|--5--5--5--5--1--1--1--1--x--x--x--x------------------------------------------|


Onko tää joku pre-chorus:

Ei enää demppausta

           Ja kuitenkin lähelläsi,  tuskin uskallan hengittää

    G                        G             F                 F   C F   C
e|--3-3-3--------------------3-3-----------1-----------------1-1-3-1-1-3--------|
B|--3-3-3--------------------3-3-----------1-----------------1-1-5-1-1-5--------|
G|--0-0-0--------------------0-0-----------2-----------------2-2-5-2-2-5--------|
D|--0-0-0--------------------0-0-----------3-----------------3-3-5-3-3-5--------|
A|--2-2-2--------------------2-2-----------3-----------------3-3-3-3-3-3--------|
E|--3-3-3--------------------3-3-----------1-----------------1-1-x-1-1-x--------|

        vaikka vuoksesi myrkkyä joisin, voisin karhuja kengittää
    G                   F                      F               G
e|--3-------------------1-1-1------------------1-1-1-----------3-3--------------|
B|--3------------------ 1-1-1------------------1-1-1-----------3-3--------------|
G|--4-------------------2-2-2------------------2-2-2-----------4-4--------------|
D|--5-------------------3-3-3------------------3-3-3-----------5-5--------------|
A|--5-------------------3-3-3------------------3-3-3-----------5-5--------------|
E|--3-------------------1-1-1------------------1-1-1-----------3-3--------------|

Chorusta pukkaa:

       Joka päivä ja joka ikinen yö,     sinua ajattelen

   G                 Am                                         C G
e|-3-----------------3------------------------------------------0-3-------------|
B|-3-----------------3------------10~-12p10----8----------------1-3-------------|
G|-0-----------------3----------------------------7-----5-5h7---0-0-------------|
D|-0-----------------5--------------------------------7---------2-0-------------|
A|-2-----------------5------------------------------------------3-2-------------|
E|-3-----------------3------------------------------------------x-3-------------|

     Joka päivä ja  joka ikinen yö,    jonka sydämeni lyö  

   G                 Am                                         C G
e|-3-----------------3----------12p8----------------------------0-3-------------|
B|-3-----------------3---------------12p10---8---10-------------1-3-------------|
G|-0-----------------3---------------------------7-------5-5h7--0-0-------------|
D|-0-----------------5------------------------------------------2-0-------------|
A|-2-----------------5------------------------------------------3-2-------------|
E|-3-----------------3------------------------------------------x-3-------------|


Verseä:

Demppausta soinnuissa


      Maailma on kaunis,         vaikka tiedä en

    Am          F           C           G
e|--5--5--5--5--1--1--1--1--3--3--3--3--3--3--3--3--10h12-----------------------|
B|--5--5--5--5--1--1--1--1--5--5--5--5--3--3--3--3--10----12-10---8--------8h10-|
G|--5--5--5--5--2--2--2--2--5--5--5--5--4--4--4--4------------------9--7h9------|
D|--7--7--7--7--3--3--3--3--5--5--5--5--5--5--5--5------------------------------|
A|--7--7--7--7--3--3--3--3--3--3--3--3--5--5--5--5------------------------------|
E|--5--5--5--5--1--1--1--1--x--x--x--x--3--3--3--3------------------------------|

       Tiedätkö sinä          mitä      tarvitsen?

    Am          F           C           G
e|--5--5--5--5--1--1--1--1--3--3--3--3--3--3--3--3-----10--12p10----------------|
B|--5--5--5--5--1--1--1--1--5--5--5--5--3--3--3--3---10-----------12p10---8-8~--|
G|--5--5--5--5--2--2--2--2--5--5--5--5--4--4--4--4------------------------------|
D|--7--7--7--7--3--3--3--3--5--5--5--5--5--5--5--5------------------------------|
A|--7--7--7--7--3--3--3--3--3--3--3--3--5--5--5--5------------------------------|
E|--5--5--5--5--1--1--1--1--x--x--x--x--3--3--3--3------------------------------|


Pre-chorus:

Ei enää demppausta

           Tunnen olevani lähelläsi,  vaikka kaukana oisinkin

    G                                      F                   F   C F   C
e|--3-3------------------------------------1-1-----------------1-1-3-1-1-3--------|
B|--3-3------------------------------------1-1-----------------1-1-5-1-1-5--------|
G|--0-0------------------------------------2-2-----------------2-2-5-2-2-5--------|
D|--0-0------------------------------------3-3-----------------3-3-5-3-3-5--------|
A|--2-2------------------------------------3-3-----------------3-3-3-3-3-3--------|
E|--3-3------------------------------------1-1-----------------1-1-x-1-1-x--------|

          sen sinulle   kertoisin,  jos oisit minun ehkä voisinkin

    G                   F                                      G
e|--3-------------------1---1-- 1---1---1-----1----------------3------------------|
B|--3------------------ 1---1---1---1---1-----1----------------3------------------|
G|--4-------------------2---2---2---2---2-----2----------------4------------------|
D|--5-------------------3---3---3---3---3-----3----------------5------------------|
A|--5-------------------3---3---3---3---3-----3----------------5------------------|
E|--3-------------------1---1---1---1---1-----1----------------3------------------|


Chorus:

       Joka päivä ja joka ikinen yö,     sinua ajattelen

   G                 Am                                            F
e|-3-----------------3----------12p8-------------------------------1--1-----------|
B|-3-----------------3---------------12p10----8~-----8-10~---------1--1-----------|
G|-0-----------------3----------------------------9----------------2--2-----------|  
D|-0-----------------5---------------------------------------------3--3-----------| 
A|-2-----------------5---------------------------------------------3--3-----------|
E|-3-----------------3---------------------------------------------1--1-----------|

        Joka päivä ja  joka ikinen yö,    jonka sydämeni lyö  

e|12-8~---------------------------------------------------------------------------|
B|-------12-10-8-----8h10~---------10~-10-12-10-----------------8-8p10h8-8~-10p8--|
G|---------------9-----------------------------------9-7----9---------------------|
D|-------------------------------------------------------10-----------------------|
A|--------------------------------------------------------------------------------|
E|--------------------------------------------------------------------------------|

Sooloa edeltävä hässäkkä, liekkö c-osa tai joku.. 


      Ja kun herään yöllä yksin nimeäsi huutaen

    Em              F           G               C    G
e|---0-0------------1-1---------3-3-------------0-0--3-3--------------------------|
B|---0-0------------1-1---------3-3-------------1-1--3-3--------------------------|
G|---0-0------------2-2---------0-0-------------0-0--0-0--------------------------|
D|---2-2------------3-3---------0-0-------------2-2--0-0--------------------------|
A|---2-2------------3-3---------2-2-------------3-3--2-2--------------------------|
E|---0-0------------1-1---------3-3-------------x-x--3-3--------------------------|

     Tiedän mikään ei palaa ennalleen       >>>>> sooloon lähtö

    Em              F           G             
e|---0-0------------1-1---------3--------------------10-10-10-10-8-10-------------|
B|---0-0------------1-1---------3--------------------10-10-10-10-8-10-------------|
G|---0-0------------2-2---------0-------------------------------------------------|
D|---2-2------------3-3---------0-------------------------------------------------|
A|---2-2------------3-3---------2-------------------------------------------------|
E|---0-0------------1-1---------3-------------------------------------------------|


Ja soolo:
                                                          G 
e|-12-12-8-8----------------------------------------------3-3---------------------|
B|-10-10-8-8-12-10-10p8-8---------------------------------3-3---------------------|
G|------------------------9-7~-7p5h7----------5-7-7~------0-0---------------------|
D|-----------------------------------7-5-7--7-------------0-0---------------------|
A|--------------------------------------------------------2-2---------------------|
E|--------------------------------------------------------3-3---------------------|
                                                          x x
e|--------------------------------------------------------------------------------|
B|--------------------------------------------------------------------------------|
G|-9-9----------------------------------------------------------------------------|
D|-----10-10-9-7~-5-5-------------------------------------------------------------|
A|--------------------7-5--5p3h5-----3-5-7-10h12p10 10~---------------------------|
E|-------------------------------3-5----------------------------------------------|

   Em          F                 G                 C     G
e|-7-7-7-7-7-7-8--8--8--10-10-10-3-3-3-3-3-3-3-3---3--3--3--3---------------------|
B|-8-8-8-8-8-8-10-10-10-10-10-10-3-3-3-3-3-3-3-3---5--5--3--3---------------------|
G|-9-9-9-9-9-9-10-10-10----------4-4-4-4-4-4-4-4---5--5--4--4---------------------|
D|-------------------------------5-5-5-5-5-5-5-5---5--5--5--5---------------------|
A|-------------------------------5-5-5-5-5-5-5-5---3--3--5--5---------------------|
E|-------------------------------3-3-3-3-3-3-3-3---x--x--3--3---------------------|

   Em          F                 G                     
e|-7-7-7-7-7-7-8--8--8--10-10-10-3-3-3-3-3-3-3-3----3-----------------------------|
B|-8-8-8-8-8-8-10-10-10-10-10-10-3-3-3-3-3-3-3-3----3-----------------------------|
G|-9-9-9-9-9-9-10-10-10----------4-4-4-4-4-4-4-4----4-----------------------------|
D|-------------------------------5-5-5-5-5-5-5-5----5-----------------------------|
A|-------------------------------5-5-5-5-5-5-5-5----5-----------------------------|
E|-------------------------------3-3-3-3-3-3-3-3----5-----------------------------|


Ja säkeistöön taas,

Demppausta soinnuissa


          Maailmassa,                   minne meen

    Am          F           C           G
e|--5--5--5--5--1--1--1--1--3--3--3--3--3--3--3--3-----12-8-----------------------|
B|--5--5--5--5--1--1--1--1--5--5--5--5--3--3--3--3-----10---12-10-8-8--8---8-10~--|
G|--5--5--5--5--2--2--2--2--5--5--5--5--4--4--4--4------------------  9---9-------|
D|--7--7--7--7--3--3--3--3--5--5--5--5--5--5--5--5--------------------------------|
A|--7--7--7--7--3--3--3--3--3--3--3--3--5--5--5--5--------------------------------|
E|--5--5--5--5--1--1--1--1--x--x--x--x--3--3--3--3--------------------------------|

          Mitä  siellä,           ilman sinua teen?

    Am          F           C           G

e|--5--5--5--5--1--1--1--1--3--3--3--3--3--3--3--3------10---12-10----------------|
B|--5--5--5--5--1--1--1--1--5--5--5--5--3--3--3--3----10---10------10--12---8-8~--|
G|--5--5--5--5--2--2--2--2--5--5--5--5--4--4--4--4--------------------------------|
D|--7--7--7--7--3--3--3--3--5--5--5--5--5--5--5--5--------------------------------|
A|--7--7--7--7--3--3--3--3--3--3--3--3--5--5--5--5--------------------------------|
E|--5--5--5--5--1--1--1--1--x--x--x--x--3--3--3--3--------------------------------|


Pre-chorus:

Ei enää demppausta

           Jonain päivänä kamppailen,       pelkoni sokaisen

    G                                      F                   F   C F   C
e|--3-3------------------------------------1-1-----------------1-1-3-1-1-3--------|
B|--3-3------------------------------------1-1-----------------1-1-5-1-1-5--------|
G|--0-0------------------------------------2-2-----------------2-2-5-2-2-5--------|
D|--0-0------------------------------------3-3-----------------3-3-5-3-3-5--------|
A|--2-2------------------------------------3-3-----------------3-3-3-3-3-3--------|
E|--3-3------------------------------------1-1-----------------1-1-x-1-1-x--------|

         Sydän rinnassa pamppaillen, tulen luoksesi tokaisen

    G                   F                                      G
e|--3-------------------1---1-- 1-------------1----------------3------------------|
B|--3------------------ 1---1---1-------------1----------------3------------------|
G|--4-------------------2---2---2-------------2----------------4------------------|
D|--5-------------------3---3---3-------------3----------------5------------------|
A|--5-------------------3---3---3-------------3----------------5------------------|
E|--3-------------------1---1---1-------------1----------------3------------------|


Ei oo loppunäppäilyjä vielä tullu selviteltyä mutta aika helppo ne on noiden aikasempien perusteella kuunnella
tai improvisoida. Pitää jatkaa loppuun kun ehtii.

Ite vedän vaan leirinuotiomeiningillä lopun, tietenki täysiä.


G             Am      F      C   G                  Am F C G

Joka päivä ja joka ikinen yö,    sinua ajattelen

G             Am      F      C   G                  Am F C G

Joka päivä ja joka ikinen yö,    jonka sydämeni lyö



Em            F           G               C G

Ja kun herään yölla yksin nimeäsi huutaen

Em            F           G     

Tiedän mikään ei palaa ennalleen



G             Am      F      C   G     Am F C G

Joka päivä ja joka ikinen yö                      

G             Am      F      C   G     Am F C G 

Joka päivä ja joka ikinen yö                        

G             Am      F      C   G     Am F C G

Joka päivä ja joka ikinen yö                         

G             Am      F      C   G     Am F C G

Joka päivä ja joka ikinen yö





************************************

| /   slide up
| \   slide down
| h   hammer-on
| p   pull-off
| ~   vibrato
| +   harmonic
| x   Mute note
| b   Bend
| pb  Pre-bend
| br  Bend release
| pbr Pre-bend release
| brb Bend release bend

************************************
Добавлено: 09.03.2016
Другие материалы по этой песне:
  • Аккорды и текст

Страница создана 09.03.2016
http://primanota.ru/eppu-normaali/joka-paiva-ja-joka-ikinen-yo-chords.htm
Привет, Гость.
Предлагаем пройти революционный курс по гитаре.
Подарок от PrimaNota.Ru, забирай!