PrimaNota.ru - самый крупный в мире бесплатный архив песенных текстов, аккордов, табулатур и нот


Eppu Normaali - Arkussa Vainaan - таба, видео

Регистрация Запомнить меня
Войти через:  Facebook Google Twitter Vk Yandex Mail.ru

Eppu Normaali - Arkussa Vainaan - таба, видео

Печатать
Просмотров: 83
Artisti: Eppu Normaali
Albumi: Studio Etana (1993)
Kappale: Arkussa Vainaan

Kitarat on kyseisessä biisissä viritetty puoli sävelaskelta ylöspäin elikkä 
viritys olisi F A# D# G# C F tai normi viritys ja capo 1 nauhalle.

Intro x3
 Am           G/Am         F            Em
|-------------------------|-------------------------|
|-------1-----------1-----|-------------------------|
|-----2---2-------2---2---|-------2-----------4-----|
|---2-------2---2-------2-|-----3---3-------2---2---|
|-0-----------------------|---3-------3---2-------2-|
|-------------3-----------|-1-----------0-----------|

Vers 1 (Näppäillen samalla tapaan kuin introssa)

Em     G           F            Am
Vannoa voisin että murhaan tuon veikon
Dm              F     Am          Em
Joka keksi että kovat pojat yksin ovat
Em      G     F         Am
Ja että sääli on merkki heikon
Dm               F    Em    Am
Jos hänet tapaan sitä tunne en

Välisoitto (Intron päälle)

 Am          G/Am            F        Em 
|--------------------------|------------------------|
|------------------4s5-----|------------------------|
|----------------2-----5-2-|-4s5-2----4s5-4---------|
|--------------------------|------------------------|
|--------------------------|------------------------|
|--------------------------|------------------------|
                                               Uskon
 Am          G/Am           F          Em
|--------------------------|------------------------|
|--------------------------|-4s5--------------------|
|--------------------------|-----5-4-2--------------|
|--------------------------|-----------2------------|
|--------------------------|------------------------|
|--------------------------|------------------------|
  sen

Vers 2

Em      G          F       Am
Melkein hirttäisin armotta herrat
Dm      F             Am       Em
Repisin pallit niillä tukkisin suut
Em       G         F        Am    
Ne jotka jauhoivat tuhannet kerrat
      Dm         F     Em   A5     
Ettei tunteitaan näytä kuin muut

Kertsi 1 (Eppujen varsin kopioimattoman kitarointityylin mukaisesti oikean soundin 
saamiseen pitää leikitellä soinnun ylemmillä sävelillä. Itse soitan kylläkin lähes 
kaikki soinnut vaan suoraan vitosotteina ja jättäisin kakkoskitaran huoleksi nuo 
kaikki leikittelyt.)

(Am)  Dm            G          Am
Koska vaikka voisin talon hajottaa
    Dm      G        Am
ja nyrkkini murskata myös             ______________(kakkoskertsin toinen 
   Dm         G    A5     G5 F5                     kertaus lähtee tästä)
ja prätkällä sutia mustaa vanaa
Dm       Em 
sanaa en sano
F             G
en voi kun en voi
F           Em
on päässäni hiljaista
F         G                      (Näin minä soitan tuon A5 E5 G5 A5 kierron,
tahtoisin kiljaista               mutta voi sen soittaa vitosotteinakin)
A5  E5 G5 A5  E5       A5              (|---------)
Voi onneton   mikä nyt on              (|---------)
A5 E5 G5  F5    G5      A5             (|---------)
miksi mun suuni on sanaton             (|-7-----7-)
A5 E5 G5 A5     E5       F5            (|-7-----7-)
Mielessä hiljaa sanontaa lainaan       (|-5-0-3-5-)
Dm       F       Em      A5
sanaisen arkkuni sisällä vainaan

Soolo 1/2 (komppikitara hakkaa kertsin ensimmäisen puolikkaan)

|----------------------------------------| (taas kerran hiukan improvisoin-
|-----------------------10---10-10--10---|  tia tuon H kieleltä otetun oktaa-
|-/7-------------------------------------|  vin käytön kanssa, tämä on vain 
|----7---7-9s10-9-7-7-7----7-------7---7-|  yksi mahdollinen tapa tehdä se)
|----------------------------------------|
|----------------------------------------|x2

|-----------------------------|------------------|
|-----------------------------|------------------|
|-/7---------------9---/12----|------------------|
|----7--7-9s10-9-7---7-----10-|---/12---/9---/7--|
|-----------------------------|------------------|
|-----------------------------|------------------|

Soolo 2/2 (komppikitara näppäilee introa)

|-------------|-----------------|---------------------------------|
|-------------|-----------------|---10-10---8-8-8-8---------------|
|-------------|---5---5s7-5-----|-------------------9-9-9-9-9-9-9-|
|-------/7----|-7---7-------7-7-|---------------------------------|
|-------------|-----------------|---------------------------------|
|-------------|-----------------|---------------------------------|

|-------------|
|-------------|
|-9---7-7-7b9-| (volume swellillä toi ysi esiin ja nopea bendi seiskalta 
|-------------|  ysiin)
|-------------|
|-------------|

Verse 3 (samalla tapaan kuin kaksi edellistäkin)

Kertsi 2 (samalla tapaan kuin edellinenkin)

Kertsi 2 kertautuu, merkitsin lähtöpaikan

Kertsi 2 kertautuu vielä kerran, tällä kertaa lähtien A5 E5 G5 A5 kuviosta ja 
loppuu poikkeuksellisesti F5 jonka jälkeen alkaa outro jonka merkitsen näinkin kammottavasti

Outro    F5      G5       A5 E5 G5 A5///


Virheistä huomioita kommentteihin tai sähköpostiin
jonatan.kanervo@hotmail.com
Добавлено: 24.09.2013
Другие материалы по этой песне:
  • Аккорды и текст

Страница создана 24.09.2013
http://primanota.ru/eppu-normaali/arkussa-vainaan-chords.htm
Привет, Гость.
Предлагаем пройти революционный курс по гитаре.
Подарок от PrimaNota.Ru, забирай!