PrimaNota.ru - самый крупный в мире бесплатный архив песенных текстов, аккордов, табулатур и нот


Epik High - Heaven - таба, видео

Регистрация Запомнить меня
Войти через:  Facebook Google Twitter Vk Yandex Mail.ru

Epik High - Heaven - таба, видео

Печатать
Просмотров: 111
Авторы музыки: MYK, Mithra 眞
Авторы текста: Tablo, MYK, Mithra 眞
===============================================================================
                             Heaven - Epik High                                
===============================================================================
Tabbed by: Dunn A (trushinobi@gmail.com)

I think this is pretty accurate

Tuning: Standard EADGBe

At the asterisks, do a little palm slap(/mute?) to make a beat. (I have no idea 

if I chose the right word to describe it but I hope you understand what I mean it 

lol)


  My Heaven.....                                                               

       *                  *                 *                   *               

e|---------0----0--------------------------------------------------0----------|
B|----1------1----1-1----3---3---3-----------------------------5--------5-----|
G|----2-------2----2-----0-----0---0-0-----5---5---5-----------4-----4----4-4-|
D|--3---3--------------2---2----2---2-----7--7---7----7-7-----5--5----5----5--|
A|-------------------2-----------------/5-----5---5----5---\3-----3-----------|
E|1-------1----------0------0-------------------------------------------------|

  My Heaven.....                                      is you......             
       *                  *                 *                  *               
e|---------0----0--------------------------------------------------0---------:|
B|----1------1----1-1----3---3---3---------3---3---3----------5--------5-----:|
G|----2-------2----2-----0-----0---0-0-----0-----0---0-0------4------4---4-4-:|
D|--3---3--------------2---2----2---2----2---2----2---2-----5---5-----5---5--:|
A|-------------------2-----------------2-----------------/3------3-----------:|
E|1-------1----------0------0----------0------0------------------------------:|

That's basically the whole song. Just repeat and fade out when you're done.

OR

You could end with the following C. 

C |x35450| or |x3x000|

===============================================================================

| *  palm slap? lol
| /  slide up
| \  slide down
| x  Mute note
| :  Repeat from beginning
===============================================================================
Добавлено: 23.03.2012
Другие материалы по этой песне:
  • Аккорды и текст

Страница создана 23.03.2012
http://primanota.ru/epik-high/heaven-chords.htm
Привет, Гость.
Предлагаем пройти революционный курс по гитаре.
Подарок от PrimaNota.Ru, забирай!