PrimaNota.ru - самый крупный в мире бесплатный архив песенных текстов, аккордов, табулатур и нот


Epik High - 1 Minute 1 Second - таба, видео

Регистрация Запомнить меня
Войти через:  Facebook Google Twitter Vk Yandex Mail.ru

Epik High - 1 Minute 1 Second - таба, видео

Печатать
Просмотров: 167
e-0---0---0-7-----------5-----------5--5-3-2-3-3-3-2-3-|
b---3---3-----3-1-3-1-3---3-1-3-1-3--------------------|
g------------------------------------------------------|
d------------------------------------------------------|
a------------------------------------------------------|
e------------------------------------------------------|

e-0---0---0-7-7-8-10-5-3-5-3-5-5---5-3-5-3-5-5--7-5-2-3-3-3-2-15-|
b---3---3--------------------------------------------------------|
g----------------------------------------------------------------|
d----------------------------------------------------------------|
a----------------------------------------------------------------|
e----------------------------------------------------------------|


e--0-0-2-3--0-2-3-3-3-5-3-2-0-2---0-2-2-2-2-2-2-0-0---0-|
b-------------------------------3-------------------3---|
g-------------------------------------------------------|
d-------------------------------------------------------|
a-------------------------------------------------------|
e-------------------------------------------------------|(2x) (i cant let go....)

 since this is myfirst tab ever....i know it sucks.....but it is the first Epik High
section...i i am pretty proud of that ^^. listen to the song to know its beats and rhytem
keep posting on with updatesfor you guys.
Добавлено: 12.03.2012
Другие материалы по этой песне:
  • Аккорды и текст

Страница создана 12.03.2012
http://primanota.ru/epik-high/1-minute-1-second-chords.htm
Привет, Гость.
Предлагаем пройти революционный курс по гитаре.
Подарок от PrimaNota.Ru, забирай!