PrimaNota.ru - самый крупный в мире бесплатный архив песенных текстов, аккордов, табулатур и нот


Epica - Our Destiny - текст песни, бас-таба, видео

Регистрация Запомнить меня
Войти через:  Facebook Google Twitter Vk Yandex Mail.ru

Epica - Our Destiny - текст песни, бас-таба, видео

Печатать
Просмотров: 152
Уроки эстрадного вокала в Санкт-Петербурге
Авторы музыки: Simone Simons, Ariën van Weesenbeek, Isaac Delahaye, Mark Jansen, Yves Huts
Авторы текста: Simone Simons
-------------------------------------------------------------------------------
                             Our Destiny - Epica
-------------------------------------------------------------------------------
Tabbed by: zoltan56

credit to songsterr for sheet music/tabs.

Intro:
G|------------|------------|------------|--------------|X2|---------------------|
D|------------|------------|------------|--------------|X2|---------------------|
A|------------|------------|------------|--------------|X2|---------------------|
E|-2~~--------|-5~~--------|------------|--------------|X2|------------------2--|
B|------------|------------|-0~~--------|-3~~-----5~~--|X2|---------------------|

Verse 1: small rest with just simone to start
G|----------------|----------------|----------------|----------------|
D|----4-------4---|----4-----------|----4-------4---|----5-------4---|
A|----------------|----------------|----------------|----------------|
E|-2-----2-2----0-|-2-----2-3--3-3-|-2-----2-2----0-|-3-----3-2----0-|
B|----------------|----------------|----------------|----------------|

Pre-Chorus:
G|-------------|-------------|-------------|-------------|
D|-------------|-------------|-------------|-------------|
A|-------------|-------------|-------------|-------------|
E|-4--x-4-4--2-|-4--x-4-2--5-|-4--x-4-4--2-|-7--x-5-5--4-|
B|-------------|-------------|-------------|-------------|

G|------------------|------------------|----------|-------------|
D|------------------|------------------|----------|-------------|
A|------------------|------------------|----------|-------------|
E|-4444444444444444-|-0000000000000000-|-2----5-7-|-------------|
B|------------------|------------------|----------|-2-2-2-2-----|

Chorus: X2
G|------------|------------|------------|--------------|
D|------------|------------|------------|--------------|
A|------------|------------|------------|--------------|
E|-2~~--------|-5~~--------|------------|--------------|
B|------------|------------|-0~~--------|-3~~-----5~~--|

Interlude:
G|------------------|----------------|----------------|
D|------------------|----------------|----------------|
A|------------------|----------------|----------------|
E|-2-22-2-2-2-2-3-0-|-2-22-2-2-3--3--|-2\-------------|
B|------------------|----------------|----------------|

Verse 2: X2
G|-----------------|-----------------|--------rest-------|
D|-----------------|-----------------|--------rest-------|
A|-----------------|-----------------|--------rest-------|
E|-2-2---2-2-2---2-|-2-2---2-3-3---3-|--------rest-------|
B|-----------------|-----------------|--------rest-------|

Pre-Chorus 2:
G|-------------|-------------|-------------|-------------|
D|-------------|-------------|-------------|-------------|
A|-------------|-------------|-------------|-------------|
E|-4--x-4-4--2-|-4--x-4-2--5-|-4--x-4-4--2-|-7--x-5-5--4-|
B|-------------|-------------|-------------|-------------|

G|------------------|------------------|----------|-------------|
D|------------------|------------------|----------|-------------|
A|------------------|------------------|----------|-------------|
E|-4444444444444444-|-0000000000000000-|-2----5-7-|-------------|
B|------------------|------------------|----------|-2-2-2-2-----|

Chorus 2:
G|------------|------------|------------|--------------|X2|---------------------|
D|------------|------------|------------|--------------|X2|---------------------|
A|------------|------------|------------|--------------|X2|---------------------|
E|-2~~--------|-5~~--------|------------|--------------|X2|-2~~-----------------|
B|------------|------------|-0~~--------|-3~~-----5~~--|X2|---------------------|

Bridge: simone alone at the start
G|------------------------|------------------------|
D|------------------------|------------------------|
A|------------------------|------------------------|
E|-2222222222222222222222-|-2222222222222222222222-|
B|------------------------|------------------------|

G|-------------|------------|-------------|---------|
D|-------------|------------|-------------|---------|
A|-------------|------------|-------------|---------|
E|-------------|------------|-------------|---------|
B|-3~~------5~-|------6---8-|-5----6----8-|---------|

G|------------------|------------------|------------------|---------|
D|------------------|------------------|------------------|---------|
A|------------------|------------------|------------------|---------|
E|------------------|-------5555555555-|------------------|---------|
B|-0000001111111111-|-000000-----------|-0000001111111111-|---------|

G|------------------------|------------------------|
D|------------------------|------------------------|
A|------------------------|------------------------|
E|-2222222222222-22222222-|-2222222222222222222222-|
B|--------------2---------|------------------------|

G|-------------|------------|-------------|---------|
D|-------------|------------|-------------|---------|
A|-------------|------------|-------------|---------|
E|-------------|------------|-------------|---------|
B|-3~~------5~-|------6---8-|-5----6----8-|--2------|

G|------------------|------------------|------------------|X2
D|------------------|------------------|------------------|X2
A|------------------|---------55554444-|------------------|X2
E|-22222-2222222222-|-22222-22---------|------------------|X2
B|------------------|------------------|-22222-2222222222-|X2

G|-------------|------------|-------------|---------|
D|-------------|------------|-------------|---------|
A|-------------|------------|-------------|---------|
E|-5-----5-----|-5-----5----|-5-----------|---------|
B|-------------|------------|-------------|-2~------|

G|------------------|----------------|------------|X2
D|------------------|----------------|------------|X2
A|------------------|----------------|------------|X2
E|------------------|----------------|------------|X2
B|-2-22-2-2-2-2-3-0-|-2-22-2-2-3--3--|-5~~----4~~-|X2

G|----------------|------------|---------|
D|----------------|------------|---------|
A|----------------|------------|---------|
E|----------------|------------|-----2-0-|
B|-2-2-2-2-5---4--|-3~~----2~~-|-2-2-----|

Chorus 3:
G|------------|------------|------------|--------------|X4|---------------------|
D|------------|------------|------------|--------------|X4|---------------------|
A|------------|------------|------------|--------------|X4|---------------------|
E|-4~~--------|-7~~--------|------------|-0~~-----2~~--|X4|-4~~-----------------|
B|------------|------------|-2~~--------|--------------|X4|---------------------|


Thats it, enjoy...


| /  slide up
| \  slide down
| h  hammer-on
| p  pull-off
| ~  vibrato
| +  harmonic
| x  Mute note
===============================================================================
Добавлено: 09.07.2015
Другие материалы по этой песне:

Страница создана 14.03.2012
http://primanota.ru/epica/our-destiny-chords.htm
Привет, Гость.
Предлагаем пройти революционный курс по гитаре.
Подарок от PrimaNota.Ru, забирай!