PrimaNota.ru - самый крупный в мире бесплатный архив песенных текстов, аккордов, табулатур и нот


Epica - Chemical Insomnia - бас-таба, видео

Регистрация Запомнить меня
Войти через:  Facebook Google Twitter Vk Yandex Mail.ru

Epica - Chemical Insomnia - бас-таба, видео

Печатать
Просмотров: 59
Уроки эстрадного вокала в Санкт-Петербурге
Авторы музыки: Rob van der Loo, Joost van den Broek, Ariën van Weesenbeek, Sascha Paeth, Isaac Delahaye, Coen Janssen, Mark Jansen
Авторы текста: Simone Simons

G|--------------------------------------------------------------------------------------------------|
D|o-------------------------------------------------------------------------------------------------|
A|--------------------------------------------------------------------------------------------------|
E|o-------------------------------------------------------------------------------------------------|
B|--0-0-0-0-0-0-0-0-0-0-0-0-3-3-3-7-7-7-7-7-7-3-3-3-6-6-6-6-6-6-2-2-2-5-5-5-5-5-5-1-1-1-4-4-4-4-4-4-|
    tripl tripl tripl tripl tripl tripl tripl tripl tripl tripl tripl tripl tripl tripl tripl tripl

G|--------------------------------------------------------------------------------------------------|
D|-------------------------------------------------------------------------------------------------o|
A|--------------------------------------------------------------------------------------------------|
E|-------------------------------------------------------------------------------------------------o|
B|-0-0-0-0-0-0-0-0-0-0-0-0-3-3-3-7-7-7-7-7-7-3-3-3-2-2-2-2-2-2-2-2-2-2-2-2-1-1-1-1-1-1-1-1-1-1-1-1--|
   tripl tripl tripl tripl tripl tripl tripl tripl tripl tripl tripl tripl tripl tripl tripl tripl

G|---------------------------------------------------------------------------|
D|---------------------------------------------------------------------------|
A|---------------------------------------------------------------------------|
E|---------------------------------------------------------------------------|
B|-1-1-1-1---0---0---1-1-1-1---4---4---1-1-1-1---0---0---1-1-1-1-1-1-4-------|
   tripl 2 + 3 + 4 + tripl 2 + 3 + 4 + tripl 2 + 3 + 4 + tripl tripl 3 + 4 +

Verse 0:23
G|-----------------------------------------------------------------|
D|-----------------------------------------------------------------|
A|-----------------------------------------------------------------|
E|-----------------------------------------------------------------|
B|-1---1-1-1-1-1-----1-1-1-1---1-1-0---0-0-0-0-0-----0-0-0-0---0-0-|
   1 + 2 + 3 + 4 + 1 + 2 + 3 + 4 + 1 + 2 + 3 + 4 + 1 + 2 + 3 + 4 +

G|-----------------------------------------------------------------|
D|-----------------------------------------------------------------|
A|-----------------------------------------------------------------|
E|-------------------------------------------------------------2---|
B|-5-5-3-5---5-5-3-5-6-----3-3-6-3-5-5-3-5---5-5-3-5-6-----5-------|
   1 + 2 + 3 + 4 + 1 + 2 + 3 + 4 + 1 + 2 + 3 + 4 + 1 + 2 + 3 + 4 +

G|-----------------------------------------------------------------|
D|-----------------------------------------------------------------|
A|-----------------------------------------------------------------|
E|-3---3-3-3-3-3-----3-3-3-3---3-3---------------------------------|
B|---------------------------------0---0-0-0-0-0-----0-0-0-0---0-0-|
   1 + 2 + 3 + 4 + 1 + 2 + 3 + 4 + 1 + 2 + 3 + 4 + 1 + 2 + 3 + 4 +

G|-----------------------------------------------------------------|
D|-----------------------------------------------------------------|
A|-----------------------------------------------------------------|
E|-------------------------------------------------------------2---|
B|-5-5-3-5---5-5-3-5-6-----3-3-6-3-5-5-3-5---5-5-3-5-6-----5-------|
   1 + 2 + 3 + 4 + 1 + 2 + 3 + 4 + 1 + 2 + 3 + 4 + 1 + 2 + 3 + 4 +

G|-----------------------------------------------------------------|
D|-----------------------------------------------------------------|
A|-----------------------------------------------------------------|
E|-----------------------------------------------------------------|
B|-1---1-1-1-1-1-----1-1-1-1---1-1-0---0-0-0-0-0-----0-0-0-0---0-0-|
   1 + 2 + 3 + 4 + 1 + 2 + 3 + 4 + 1 + 2 + 3 + 4 + 1 + 2 + 3 + 4 +

G|-----------------------------------------------------------------|
D|-----------------------------------------------------------------|
A|-----------------------------------------------------------------|
E|-------------------------------------------------------------2---|
B|-5-5-3-5---5-5-3-5-6-----3-3-6-3-5-5-3-5---5-5-3-5-6-----5-------|
   1 + 2 + 3 + 4 + 1 + 2 + 3 + 4 + 1 + 2 + 3 + 4 + 1 + 2 + 3 + 4 +

G|-----------------------------------------------------------------|
D|-----------------------------------------------------------------|
A|-----------------------------------------------------------------|
E|-3---3-3-3-3-3-----3-3-3-3---3-3---------------------------------|
B|---------------------------------0---0-0-0-0-0-----0-0-0-0---0-0-|
   1 + 2 + 3 + 4 + 1 + 2 + 3 + 4 + 1 + 2 + 3 + 4 + 1 + 2 + 3 + 4 +

G|-----------------------------------------------------------------|
D|-----------------------------------------------------------------|
A|-----------------------------------------------------------------|
E|-----------------------------------------------------------------|
B|-5-\---------------------------------------------5-7-----/12\----|
   1 + 2 + 3 + 4 + 1 + 2 + 3 + 4 + 1 + 2 + 3 + 4 + 1 + 2 + 3 + 4 +

Pre Chorus 1:02
G|-----------------------------------------------------------------|
D|-----------------------------------------------------------------|
A|-----------------------------------------------------------------|
E|-----------------------------------------------------------------|
B|-1---0---000-0-0-000-0-0-000-0-0-1---0---000-0-0-000-0-0-000-0-0-|
   1 + 2 + 3 + 4 + 1 + 2 + 3 + 4 + 1 + 2 + 3 + 4 + 1 + 2 + 3 + 4 +

G|-----------------------------------------------------------------|
D|-----------------------------------------------------------------|
A|-----------------------------------------------------------------|
E|-1---0---000-0-0-000-0-0-000-0-0-1---0---000-0-0-3---0---1---2---|
B|-----------------------------------------------------------------|
   1 + 2 + 3 + 4 + 1 + 2 + 3 + 4 + 1 + 2 + 3 + 4 + 1 + 2 + 3 + 4 +

G|-----------------------------------------------------------------|
D|-----------------------------------------------------------------|
A|-----------------------------------------------------------------|
E|-----------------------------------------------------------------|
B|-1---0---000-0-0-000-0-0-000-0-0-1---0---000-0-0-000-0-0-000-0-0-|
   1 + 2 + 3 + 4 + 1 + 2 + 3 + 4 + 1 + 2 + 3 + 4 + 1 + 2 + 3 + 4 +

G|-----------------------------------------------------------------|
D|-----------------------------------------------------------------|
A|-----------------------------------------------------------------|
E|-1---0---000-0-0-000-0-0-000-0-0-1---0-0-0-0-3-------3---5-------|
B|-----------------------------------------------------------------|
   1 + 2 + 3 + 4 + 1 + 2 + 3 + 4 + 1 + 2 + 3 + 4 + 1 + 2 + 3 + 4 +

Chorus 1:22
G|-----------------------------------------------------------------|
D|-----------------------------------------------------------------|
A|-----------------------------------------------------------------|
E|-7-------------------------------5-----------5-5-5---5-----5-5---|
B|-------------0-0-0---0-----0-0-----------------------------------|
   1 + 2 + 3 + 4 + 1 + 2 + 3 + 4 + 1 + 2 + 3 + 4 + 1 + 2 + 3 + 4 +

G|-----------------------------------------------------------------|
D|-----------------------------------------------------------------|
A|-----------------------------------------------------------------|
E|-3-----------3-3-3---3-----3-3---2-----------2-2-2---2-----2-2---|
B|-----------------------------------------------------------------|
   1 + 2 + 3 + 4 + 1 + 2 + 3 + 4 + 1 + 2 + 3 + 4 + 1 + 2 + 3 + 4 +

G|-----------------------------------------------------------------|
D|-----------------------------------------------------------------|
A|-----------------------------------------------------------------|
E|-0-----------0-0-0---0-----0-0---2-----------2-2-2---2-----2-2---|
B|-----------------------------------------------------------------|
   1 + 2 + 3 + 4 + 1 + 2 + 3 + 4 + 1 + 2 + 3 + 4 + 1 + 2 + 3 + 4 +

G|-----------------------------------------------------------------|
D|-----------------------------------------------------------------|
A|-----------------------------------------------------------------|
E|-3-----------3-3-3---3-----3-3---5-----------5-5-5---5---5---5---|
B|-----------------------------------------------------------------|
   1 + 2 + 3 + 4 + 1 + 2 + 3 + 4 + 1 + 2 + 3 + 4 + 1 + 2 + 3 + 4 +

Interlude 1:42
G|-------------------------------------------------------------------------------------------------|
D|-------------------------------------------------------------------------------------------------|
A|-------------------------------------------------------------------------------------------------|
E|-------------------------------------------------------------------------------------------------|
B|-0-0-0-0-0-0-0-0-0-0-0-0-3-3-3-7-7-7-7-7-7-3-3-3-6-6-6-6-6-6-2-2-2-5-5-5-5-5-5-1-1-1-4-4-4-4-4-4-|
   tripl tripl tripl tripl tripl tripl tripl tripl tripl tripl tripl tripl tripl tripl tripl tripl

G|-------------------------------------------------------------------------------------------------|
D|-------------------------------------------------------------------------------------------------|
A|-------------------------------------------------------------------------------------------------|
E|-------------------------------------------------------------------------------------------------|
B|-0-0-0-0-0-0-0-0-0-0-0-0-3-3-3-7-7-7-7-7-7-3-3-3-2-2-2-2-2-2-2-2-2-2-2-2-1-1-1-1-1-1-1-1-1-1-1-1-|
   tripl tripl tripl tripl tripl tripl tripl tripl tripl tripl tripl tripl tripl tripl tripl tripl

G|-------------------------------------------------------------------------|
D|-------------------------------------------------------------------------|
A|-------------------------------------------------------------------------|
E|-------------------------------------------------------------------------|
B|-1-1-1-1---0---0---1-1-1-1---4---4---1-1-1-1---0---0---1-1-1-1---4-------|
   tripl 2 + 3 + 4 + tripl 2 + 3 + 4 + tripl 2 + 3 + 4 + tripl 2 + 3 + 4 +

Verse 1:57
G|-----------------------------------------------------------------|
D|-----------------------------------------------------------------|
A|-----------------------------------------------------------------|
E|-----------------------------------------------------------------|
B|-1---1-1-1-1-1-----1-1-1-1---1-1-0---0-0-0-0-0-----0-0-0-0---0-0-|
   1 + 2 + 3 + 4 + 1 + 2 + 3 + 4 + 1 + 2 + 3 + 4 + 1 + 2 + 3 + 4 +

G|-----------------------------------------------------------------|
D|-----------------------------------------------------------------|
A|-----------------------------------------------------------------|
E|-------------------------------------------------------------2---|
B|-5-5-3-5---5-5-3-5-6-----3-3-6-3-5-5-3-5---5-5-3-5-6-----5-------|
   1 + 2 + 3 + 4 + 1 + 2 + 3 + 4 + 1 + 2 + 3 + 4 + 1 + 2 + 3 + 4 +

G|-----------------------------------------------------------------|
D|-----------------------------------------------------------------|
A|-----------------------------------------------------------------|
E|-3---3-3-3-3-3-----3-3-3-3---3-3---------------------------------|
B|---------------------------------0---0-0-0-0-0-----0-0-0-0---0-0-|
   1 + 2 + 3 + 4 + 1 + 2 + 3 + 4 + 1 + 2 + 3 + 4 + 1 + 2 + 3 + 4 +

G|-----------------------------------------------------------------|
D|-----------------------------------------------------------------|
A|-----------------------------------------------------------------|
E|-------------------------------------------------------------2---|
B|-5-5-3-5---5-5-3-5-6-----3-3-6-3-5-5-3-5---5-5-3-5-6-----5-------|
   1 + 2 + 3 + 4 + 1 + 2 + 3 + 4 + 1 + 2 + 3 + 4 + 1 + 2 + 3 + 4 +

G|-----------------------------------------------------------------|
D|-----------------------------------------------------------------|
A|-----------------------------------------------------------------|
E|-----------------------------------------------------------------|
B|-1---1-1-1-1-1-----1-1-1-1---1-1-0---0-0-0-0-0-----0-0-0-0---0-0-|
   1 + 2 + 3 + 4 + 1 + 2 + 3 + 4 + 1 + 2 + 3 + 4 + 1 + 2 + 3 + 4 +

G|-----------------------------------------------------------------|
D|-----------------------------------------------------------------|
A|-----------------------------------------------------------------|
E|-------------------------------------------------------------2---|
B|-5-5-3-5---5-5-3-5-6-----3-3-6-3-5-5-3-5---5-5-3-5-6-----5-------|
   1 + 2 + 3 + 4 + 1 + 2 + 3 + 4 + 1 + 2 + 3 + 4 + 1 + 2 + 3 + 4 +

G|-----------------------------------------------------------------|
D|-----------------------------------------------------------------|
A|-----------------------------------------------------------------|
E|-3---3-3-3-3-3-----3-3-3-3---3-3---------------------------------|
B|---------------------------------0---0-0-0-0-0-----0-0-0-0---0-0-|
   1 + 2 + 3 + 4 + 1 + 2 + 3 + 4 + 1 + 2 + 3 + 4 + 1 + 2 + 3 + 4 +

Pre Chorus 2:31
G|-----------------------------------------------------------------|
D|-----------------------------------------------------------------|
A|-----------------------------------------------------------------|
E|-----------------------------------------------------------------|
B|-1---0---000-0-0-000-0-0-000-0-0-1---0---000-0-0-000-0-0-000-0-0-|
   1 + 2 + 3 + 4 + 1 + 2 + 3 + 4 + 1 + 2 + 3 + 4 + 1 + 2 + 3 + 4 +

G|-----------------------------------------------------------------|
D|-----------------------------------------------------------------|
A|-----------------------------------------------------------------|
E|-1---0---000-0-0-000-0-0-000-0-0-1---0-0-0-0-3-------3---5-------|
B|-----------------------------------------------------------------|
   1 + 2 + 3 + 4 + 1 + 2 + 3 + 4 + 1 + 2 + 3 + 4 + 1 + 2 + 3 + 4 +

Chorus 2:41
G|-----------------------------------------------------------------|
D|-----------------------------------------------------------------|
A|-----------------------------------------------------------------|
E|-7-------------------------------5-----------5-5-5---5-----5-5---|
B|-------------0-0-0---0-----0-0-----------------------------------|
   1 + 2 + 3 + 4 + 1 + 2 + 3 + 4 + 1 + 2 + 3 + 4 + 1 + 2 + 3 + 4 +

G|-----------------------------------------------------------------|
D|-----------------------------------------------------------------|
A|-----------------------------------------------------------------|
E|-3-----------3-3-3---3-----3-3---2-----------2-2-2---2-----2-2---|
B|-----------------------------------------------------------------|
   1 + 2 + 3 + 4 + 1 + 2 + 3 + 4 + 1 + 2 + 3 + 4 + 1 + 2 + 3 + 4 +

G|-----------------------------------------------------------------|
D|-----------------------------------------------------------------|
A|-----------------------------------------------------------------|
E|---------------------------------5-----------5-5-5---5-----5-5---|
B|-0-----------0-0-0---0-----0-0-----------------------------------|
   1 + 2 + 3 + 4 + 1 + 2 + 3 + 4 + 1 + 2 + 3 + 4 + 1 + 2 + 3 + 4 +

G|-----------------------------------------------------------------|
D|-----------------------------------------------------------------|
A|-----------------------------------------------------------------|
E|-3-----------3-3-3---3-----3-3---2-----------2-2-2---2-----2-2---|
B|-----------------------------------------------------------------|
   1 + 2 + 3 + 4 + 1 + 2 + 3 + 4 + 1 + 2 + 3 + 4 + 1 + 2 + 3 + 4 +

G|-----------------------------------------------------------------|
D|-----------------------------------------------------------------|
A|-----------------------------------------------------------------|
E|-0---0---0---0-0-0---0-----0-0---2---2---2---2-2-2---2-----2-2---|
B|-----------------------------------------------------------------|
   1 + 2 + 3 + 4 + 1 + 2 + 3 + 4 + 1 + 2 + 3 + 4 + 1 + 2 + 3 + 4 +

G|-----------------------------------------------------------------|
D|-----------------------------------------------------------------|
A|-----------------------------------------------------------------|
E|-3---3---3---3-3-3---3-----3-3---5---5---5---5-5-5---5-----5-5---|
B|-----------------------------------------------------------------|
   1 + 2 + 3 + 4 + 1 + 2 + 3 + 4 + 1 + 2 + 3 + 4 + 1 + 2 + 3 + 4 +

G|-----------------------------------------------------------------|
D|-----------------------------------------------------------------|
A|-----------------------------------------------------------------|
E|-3-3-3-r-3-r-3-3-r-3-3-3-3-3-r-----3-3-3-3-r-3-5-r-5-5-5-5-2-----|
B|-----------------------------------------------------------------|
   1 + 2 + 3 + 4 + 1 + 2 + 3 + 4 + 1 + 2 + 3 + 4 + 1 + 2 + 3 + 4 +

Bridge 3:15
G|-----------------------------------------------------------------|
D|-----------------------------------------------------------------|
A|-----------------------------------------------------------2-----|
E|-------------------------------------------------------------3-2-|
B|-0-0-0---0---0-0---0-0-0-0-0-----0-0-0---0---0-0---00000-0-------|
   1 + 2 + 3 + 4 + 1 + 2 + 3 + 4 + 1 + 2 + 3 + 4 + 1 + 2 + 3 + 4 +

G|-------------------------------------------------|
D|-------------------------------------------------|
A|-------------------------------------------------|
E|-0-0-0---0---0-0---0-0-0-0-0-0-0-3-3-2-3---3-2---|
B|-----------------------------------------------3-|
   1 + 2 + 3 + 4 + 1 + 2 + 3 + 4 + 1 + 2 + 3 + 4 + 

G|-----------------------------------------------------------------|
D|-----------------------------------------------------------------|
A|-----------------------------------------------------------2-----|
E|-------------------------------------------------------------3-2-|
B|-0-0-0---0---0-0---0-0-0-0-0-----0-0-0---0---0-0---00000-0-------|
   1 + 2 + 3 + 4 + 1 + 2 + 3 + 4 + 1 + 2 + 3 + 4 + 1 + 2 + 3 + 4 +

G|-----------------------------------------------------------------|
D|-----------------------------------------------------------------|
A|-----------------------------------0-2---------------------------|
E|-0-0-0---0---0-0---0-0-0-0-0-0-2-3---------0-2-------------0-2-0-|
B|---------------------------------------4-------0---1-3-4---------|
   1 + 2 + 3 + 4 + 1 + 2 + 3 + 4 + 1 + 2 + 3 + 4 + 1 + 2 + 3 + 4 +

Verse 3:33
G|-----------------------------------------------------------------|
D|-------------------5-4-------------------------------------5-4---|
A|-----------------------5-7-7-5-7---7-7-7-7-7-7-7-7-7-7-7-7-----5-|
E|---0-0-0-0-0-0-0-0-----------------------------------------------|
B|-----------------------------------------------------------------|
   1 + 2 + 3 + 4 + 1 + 2 + 3 + 4 + 1 + 2 + 3 + 4 + 1 + 2 + 3 + 4 +

G|-----------------------------------------------------------------|
D|-----------------------------------------------------------------|
A|-----------------------------------0-2---------------------------|
E|-------------------------------3-----------0-2-------------0-2-0-|
B|-0---0-0-0-0---0-----0-0-----0---------4-------0---1-3-4---------|
   1 + 2 + 3 + 4 + 1 + 2 + 3 + 4 + 1 + 2 + 3 + 4 + 1 + 2 + 3 + 4 +

G|-----------------------------------------------------------------|
D|-----------------------------------------------------------5-4---|
A|-------------------------------7---7-7-7-7-7-7-7-7-7-7-7-7-----5-|
E|---0-0-0-0-0-0-0-0-0-0-0-0-0-0-----------------------------------|
B|-----------------------------------------------------------------|
   1 + 2 + 3 + 4 + 1 + 2 + 3 + 4 + 1 + 2 + 3 + 4 + 1 + 2 + 3 + 4 +

G|-----------------------------------------------------------------|
D|-----------------------------------------------------------------|
A|-----------------------------------0-2---------------------------|
E|-------------------------------3-----------0-2-------------0-2-0-|
B|-0---0-0-0-0---0-----0-0-----0---------4-------0---1-3-4---------|
   1 + 2 + 3 + 4 + 1 + 2 + 3 + 4 + 1 + 2 + 3 + 4 + 1 + 2 + 3 + 4 +

Interlude 3:53
G|----------------7-r-10-9---------------------------------------------|
D|-----7-r-9-r-10----------10-9-10-r-----7-6---------------------------|
A|-7-9---------------------------------------8-5---7-8---7-7-5-7-8-----|
E|---------------------------------------------------------------------|
B|---------------------------------------------------------------------|
   1 + 2 + 3 + 4  + 1 +  2 +  3 +  4 + 1 + 2 + 3 + 4 + 1 + 2 + 3 + 4 +

Pre Chorus 
G|-----------------------------------------------------------------|
D|-----------------------------------------------------------------|
A|-----------------------------------------------------------------|
E|-----------------------------------------------------------------|
B|-1---0---000-0-0-000-0-0-000-0-0-1---0---000-0-0-000-0-0-000-0-0-|
   1 + 2 + 3 + 4 + 1 + 2 + 3 + 4 + 1 + 2 + 3 + 4 + 1 + 2 + 3 + 4 +

G|-----------------------------------------------------------------|
D|-----------------------------------------------------------------|
A|-----------------------------------------------------------------|
E|-1---0---000-0-0-000-0-0-000-0-0-1---0---000-0-0-3---0---1---2---|
B|-----------------------------------------------------------------|
   1 + 2 + 3 + 4 + 1 + 2 + 3 + 4 + 1 + 2 + 3 + 4 + 1 + 2 + 3 + 4 +

G|-----------------------------------------------------------------|
D|-----------------------------------------------------------------|
A|-----------------------------------------------------------------|
E|-----------------------------------------------------------------|
B|-1---0---000-0-0-000-0-0-000-0-0-1---0---000-0-0-000-0-0-000-0-0-|
   1 + 2 + 3 + 4 + 1 + 2 + 3 + 4 + 1 + 2 + 3 + 4 + 1 + 2 + 3 + 4 +

G|-----------------------------------------------------------------|
D|-----------------------------------------------------------------|
A|-----------------------------------------------------------------|
E|-1---0---000-0-0-000-0-0-000-0-0-1---0-0-0-0-3-------3---5-------|
B|-----------------------------------------------------------------|
   1 + 2 + 3 + 4 + 1 + 2 + 3 + 4 + 1 + 2 + 3 + 4 + 1 + 2 + 3 + 4 +

Chorus 4:17
G|-----------------------------------------------------------------|
D|-----------------------------------------------------------------|
A|-----------------------------------------------------------------|
E|-7-------------------------------5-----------5-5-5---5-----5-5---|
B|-------------0-0-0---0-----0-0-----------------------------------|
   1 + 2 + 3 + 4 + 1 + 2 + 3 + 4 + 1 + 2 + 3 + 4 + 1 + 2 + 3 + 4 +

G|-----------------------------------------------------------------|
D|-----------------------------------------------------------------|
A|-----------------------------------------------------------------|
E|-3-----------3-3-3---3-----3-3---2-----------2-2-2---2-----2-2---|
B|-----------------------------------------------------------------|
   1 + 2 + 3 + 4 + 1 + 2 + 3 + 4 + 1 + 2 + 3 + 4 + 1 + 2 + 3 + 4 +

G|-----------------------------------------------------------------|
D|-----------------------------------------------------------------|
A|-----------------------------------------------------------------|
E|-0-----------0-0-0---0-----0-0---2-----------2-2-2---2-----2-2---|
B|-----------------------------------------------------------------|
   1 + 2 + 3 + 4 + 1 + 2 + 3 + 4 + 1 + 2 + 3 + 4 + 1 + 2 + 3 + 4 +

G|-----------------------------------------------------------------|
D|-----------------------------------------------------------------|
A|-----------------------------------------------------------------|
E|-3-----------3-3-3---3-----3-3---5-----------5-5-5-5-5---5---5---|
B|-----------------------------------------------------------------|
   1 + 2 + 3 + 4 + 1 + 2 + 3 + 4 + 1 + 2 + 3 + 4 + 1 + 2 + 3 + 4 +

4:37
G|-----------------------------------------------------------------|
D|-----------------------------------------------------------------|
A|-----------------------------------------------------------------|
E|---------------------------------5---5---5---5-5-5---5-----5-5---|
B|-0---0---0---0-0-0---0-----0-0-----------------------------------|
   1 + 2 + 3 + 4 + 1 + 2 + 3 + 4 + 1 + 2 + 3 + 4 + 1 + 2 + 3 + 4 +

G|-----------------------------------------------------------------|
D|-----------------------------------------------------------------|
A|-----------------------------------------------------------------|
E|-3---3---3---3-3-3---3-----3-3---2---2---2---2-2-2---2-----2-2---|
B|-----------------------------------------------------------------|
   1 + 2 + 3 + 4 + 1 + 2 + 3 + 4 + 1 + 2 + 3 + 4 + 1 + 2 + 3 + 4 +

G|-----------------------------------------------------------------|
D|-----------------------------------------------------------------|
A|-----------------------------------------------------------------|
E|-0---0---0---0-0-0---0-----0-0---2---2---2---2-2-2---2-----2-2---|
B|-----------------------------------------------------------------|
   1 + 2 + 3 + 4 + 1 + 2 + 3 + 4 + 1 + 2 + 3 + 4 + 1 + 2 + 3 + 4 +

G|-----------------------------------------------------------------|
D|-----------------------------------------------------------------|
A|-----------------------------------------------------------------|
E|-3---3---3---3-3-3---3-----3-3---5---5---5---5-5-5---5-----5-5---|
B|-----------------------------------------------------------------|
   1 + 2 + 3 + 4 + 1 + 2 + 3 + 4 + 1 + 2 + 3 + 4 + 1 + 2 + 3 + 4 +

G|-----------------------------------------------------------------|
D|-----------------------------------------------------------------|
A|-----------------------------------------------------------------|
E|-3-3-3-r-3-r-3-3-r-3-3-3-3-3-r-----3-3-3-3-r-3-5-r-5-5-5-5-2-----|
B|-----------------------------------------------------------------|
   1 + 2 + 3 + 4 + 1 + 2 + 3 + 4 + 1 + 2 + 3 + 4 + 1 + 2 + 3 + 4 +

G|-----------------------------------------------------------------|
D|-----------------------------------------------------------------|
A|-----------------------------------------------------------------|
E|---------------------------------7-7-7---------------------------|
B|-0---------------------------------------0-0-0-------------------|
   1 + 2 + 3 + 4 + 1 + 2 + 3 + 4 + 1 + 2 + 3 + 4 + 1 + 2 + 3 + 4 +
Tabbed by Dave Vucko
Добавлено: 02.12.2015
Другие материалы по этой песне:

Страница создана 08.06.2014
http://primanota.ru/epica/chemical-insomnia-chords.htm
Привет, Гость.
Предлагаем пройти революционный курс по гитаре.
Подарок от PrimaNota.Ru, забирай!