PrimaNota.ru - самый крупный в мире бесплатный архив песенных текстов, аккордов, табулатур и нот


Eons Before Us - Eons3 - таба, видео

Регистрация Запомнить меня
Войти через:  Facebook Google Twitter Vk Yandex Mail.ru

Eons Before Us - Eons3 - таба, видео

Печатать
Просмотров: 77
Уроки эстрадного вокала в Санкт-Петербурге
Drop Bb

intro
1//----------------------------------------    -----------------------------------|
2//----------------------------------------    -----------------------------------|
3//----------------------------------------  verse1  -----------------------------|
4//-2--------------------------------------    -----------------------------------|
5//-2---------------------------------------  ---------------78---------5-----35--|
6//-2---000-0-000-0-000---00-00-0-00-00-00  -000-0-000--58----0 000----0-0--------|
               ***   *   ***   *  ***       **   **      **   **
1//-------------------------------------------------------------------------------|
2//-------------------------------------------------------------------------------|
3//--------------------------------87---------------------------------------------|
5//--------------78--------10--------8-----------78--------5-------35-------------|
6//-00-0-00-0-58----0-000----0-0------00-0-0-58----0-000-----0-0-----00-0-00-0----|
       **       **                  *  ***         *  *            **
                     *   ***          *  *           **      **
1//----------------------------------------------------------------------------|
2//----------------------------------------------------------------------------|
3//---------------7------------------------------------------------------------|
5//---78-------87--7-----------------------------------------------------------|
6//-58---0-0-5-----------------------------------------------------------------|
                 *      *

Verse 2x

Chords after verse 1 second time


1//----------------------------------------------------------------------------|
2//--10--------12--------------------------------------------------------------|
3//--8----10---8----12---------------------------------------------------------|
5//--8----8----8----8----------------------------------------------------------|
6//--8----8----8----8----------------------------------------------------------|
 Strum each 8 times in eighth. Recording homie

1//----------------------------------------------------------------------------|
2//----------------------------------------------------------------------------|
3//-------------35-------------78----------5----------------------35-----------|
5//-----------35----------35------------35------3---3-----------35-------------|
6//--0-00000-------0-000----0----0-0-0-------0--535-1-0-00000------0-000-------|
             ******              *  ***         *        *     *
              *   * **** *      *****             *  ***

1//-----------------------------------------------------------------------------------|
2//-----------------------------------------------------------------------------------|
3//--------78----------3--------------------------------------------------------------|
5//---35-------------35---------------------------------------------------------------|
6//------0----0-0-0------0-0-0-0-0-0-0-0----------------------------------------------|
                 *       *      *                *  *      *      *  *
^2x ( Listen to recording. The ending of the riff right before the 2step cuts off earlier)

2step chords only
1//------------------------------------------------------------------------------|
2//---------------10--12---5--9-------------------------------------12-----------|
3//----0--3---7---8---10---3--5--------------------------12---12-13--------------|
5//----0--3---5---8---10---3--5---------------------12-13------------------------|
6//----0--3---5-------------------000-0-000-0-000-----------0-----------0--1-----|
                                  BAOW
2x


1//----------------------------------------------------------------------------|
2//----------------------------------------------------------------------------|
3//----------------------------------------------------------------------------|
5//----------------------------------------------------------------------------|
6//----------------------------------------------------------------------------|
Добавлено: 14.07.2013
Другие материалы по этой песне:
  • Аккорды и текст

Страница создана 14.07.2013
http://primanota.ru/eons-before-us/eons3-chords.htm
Привет, Гость.
Предлагаем пройти революционный курс по гитаре.
Подарок от PrimaNota.Ru, забирай!