PrimaNota.ru - самый крупный в мире бесплатный архив песенных текстов, аккордов, табулатур и нот


Enya - So I Could Find My Way - таба, видео

Регистрация Запомнить меня
Войти через:  Facebook Google Twitter Vk Yandex Mail.ru

Enya - So I Could Find My Way - таба, видео

Печатать
Просмотров: 106
Авторы музыки: Enya
Авторы текста: Roma Ryan
-------------------------------------------------------------------------------
                             So I Could Find My Way - Enya
-------------------------------------------------------------------------------
Tabbed by:majorseventh
E-mail:cwarner3000@gmail.com

Play along on you tube at: https://www.youtube.com/watch?v=WZth6_62CJQ


Tuning:DADGBe (Drop D)


Intro (Guitar and synth are combined)
   D       F#m Bm     F#m D
e|----------------------------------------------------------------------------|
B|----------2--3-------2----------------3-----3-----3-------------------------|
G|----------2----------2---------------2-2---2-2---2-2------------------------|
D|------0-4-4------0---4----0---0-----4---4-4---4-4---4-----------------------|
A|----0-----4--2-2---2-4------0------------5-----5----------------------------|
D|--0---------------------0-------0--0-----------------0----------------------|

Verse 1 (Guitar)
    D      F#m   Bm           Em          A
e|-------------------------------0-----0-------------------------------------|
B|-----3------2-----3-----3-----0-0---0-0----2-----2-------------------------|
G|----2-2----2-2---4-4---4-4---0---0-0---0--2-2---2-2------------------------|
D|---4---4--4---4-4---4-4---4--------------2---2-2---2-----------------------|
A|---------4-----2-----2------------------0-----0----------------------------|
D|--0-------------------------2-----2----------------------------------------|
"A thousand dreams you gave to me, you held me high you held me high"

    D      F#m   Bm           G     A     D
e|------------------------------------------------------------------------------|
B|-----3------2-----3-----3------3-----2-----3-----3-------------------------|
G|----2-2----2-2---4-4---4-4----0-0---2-2---2-2---2-2------------------------|
D|---4---4--4---4-4---4-4---4--0---0-2---2-4---4-4---4-----------------------|
A|---------4-----2-----2------------0----------------------------------------|
D|--0-------------------------5-----------0-----0----------------------------|
"And all those years you guided me, so I could find my way"



Verse 2
How long your love had sheltered me
You held me high you held me high
Our harbor holding back the sea
So I could find my way



Chorus
    G     A     D     Bm    Em    A     D     Bm
e|-----------------------------0---------------------------------------------|
B|-----3-----2-----3-----3----0-0----2-----3-----3---------------------------|
G|----0-0---2-2---2-2---4-4--0---0--2-2---2-2---4-4--------------------------|
D|---0---0-2---2-4---4-4---4-------2---2-4---4-4---4-------------------------|
A|--------0-----------2-----------0-----------2------------------------------|
D|--5-----------0-----------2-----------0------------------------------------|
"So let me give this dream to you, upon another shore"

    G     A     D     Bm    G     Em    Asus4  A
e|-----------------------------------0--------------------------------------|
B|-----3-----2-----3-----3-----3----0-0----3---2----------------------------|
G|----0-0---2-2---2-2---4-4---0-0--0---0--2-2--2----------------------------|
D|---0---0-2---2-4---4-4---4-0---0-------2---2-2----------------------------|
A|--------0-----------2-----------------0------0----------------------------|
D|--5-----------0-----------5-----2-----------------------------------------|
"So let me give this dream to you, each night and ever more"

Verse 3
Yet only time keeps us apart
You held me high, you held me high
You're in the shadows of my heart
So I can find my way

Verse 4
mmm mmm mmm mmm
You held me high you held me high
mmm mmm mmm mmm 
mmm mmm mmm mm

Repeat Chorus 

Final Verse
    D      F#m   Bm           Em          A
e|-------------------------------0-----0-------------------------------------|
B|-----3------2-----3-----3-----0-0---0-0----2-----2-------------------------|
G|----2-2----2-2---4-4---4-4---0---0-0---0--2-2---2-2------------------------|
D|---4---4--4---4-4---4-4---4--------------2---2-2---2-----------------------|
A|---------4-----2-----2------------------0-----0----------------------------|
D|--0-------------------------2-----2----------------------------------------|
"A thousand dreams you gave to me, you held me high, you held me high

    D      F#m   Bm           G     A     Bm    Bm/A
e|---------------------------------------------------------------------------|
B|-----3------2-----3-----3------3-----2-----3-----3-------------------------|
G|----2-2----2-2---4-4---4-4----0-0---2-2---4-4---4-4------------------------|
D|---4---4--4---4-4---4-4---4--0---0-2---2-4---4-4---4-----------------------|
A|---------4-----2-----2------------0-----2-----0----------------------------|
D|--0-------------------------5----------------------------------------------|
"And all those years you guided me, so I could find my way

    G     A     D
e|---------------------------------------------------------------------------|
B|-----3-----2-----3-----3-----3---------------------------------------------|
G|----0-0---2-2---2-2---2-2---2-2--------------------------------------------|
D|---0---0-2---2-4---4-4---4-4---4-------------------------------------------|
A|--------0-----------5-----5------------------------------------------------|
D|--5-----------0-----------------0------------------------------------------|
"So I could find my way..."





 

So I could find my way 


  D        F#m        Bm
A thousand dreams you gave to me,
    Em                A
You held me high, you held me high.
    D         F#m       Bm
And all those years you guided me,
   G       A       D
So I could find my way.

    D         F#m      Bm
How long your love had sheltered me,
    Em                A
You held me high, you held me high.
  D       F#m     Bm
A harbour holding back the sea,
   G       A       D
So I could find my way.

G         A         D        Bm
So let me give this dream to you,
Em     A      D    Bm
Upon another shore.
G         A         D        Bm
So let me give this dream to you,
     G         Em  Asus4 A
Each night and evermore.

    D    F#m        Bm
Yet only time keeps us apart,
    Em                A
You held me high, you held me high.
       D      F#m     Bm
You're in the shadows of my heart,
   G       A       D
So I could find my way.

D   F#m   Bm
mmm mmm mmm mmm
    Em               A
You held me high you held me high
D   F#m   Bm
mmm mmm mmm mmm 
G  A  D
mmm mmm mmm mm

G         A         D        Bm
So let me give this dream to you,
Em     A      D    Bm
Upon another shore.
G         A         D        Bm
So let me give this dream to you,
     G         Em  Asus4 A
Each night and evermore.

  D        F#m        Bm
A thousand dreams you gave to me,
    Em                A
You held me high, you held me high.
    D         F#m       Bm
And all those years you guided me,
   G       A       Bm  Bm/A 
So I could find my way.
   G       A       D
So I could find my way...





************************************

| /   slide up
| \   slide down
| h   hammer-on
| p   pull-off
| ~   vibrato
| +   harmonic
| x   Mute note
| b   Bend
| pb  Pre-bend
| br  Bend release
| pbr Pre-bend release
| brb Bend release bend

************************************
Добавлено: 20.02.2016
Другие материалы по этой песне:

Страница создана 20.02.2016
http://primanota.ru/enya/so-i-could-find-my-way-chords.htm
Привет, Гость.
Предлагаем пройти революционный курс по гитаре.
Подарок от PrimaNota.Ru, забирай!