PrimaNota.ru - самый крупный в мире бесплатный архив песенных текстов, аккордов, табулатур и нот


Enya - Adiemus - текст песни, таба, видео

Регистрация Запомнить меня
Войти через:  Facebook Google Twitter Vk Yandex Mail.ru

Enya - Adiemus - текст песни, таба, видео

Печатать
Просмотров: 330


e|---------5-------
B|-----5-8---8---5-
G|---7---------5---
E|-7---------------
A|-----------------
E|-----------------


verse:

D5         Cadd9
Ariadiemus late
Bb         Gm
Ariadiemus da
Am               Bm
Ariadinatus lata adua

Bm7         D
Aravane tue vate
C           G
Aravane tue vate
Bm          F#   A
Aravane tue vate latea


repeat verse


chorus:

C             Am
Anamana coola rawe
Em            D
Anamana coola ra
G           G/B G/C  G     G/B G/C
Anamana coola   rawe akala
Em                 D
Anamana coola rawe akala (aya doo aya)
Gb                 F
Anamana coola rawe akala (aya doo aya)
C
Aya doo aya
C
Aya doo aya.


repeat verse x2 + solo:


solo arranged for guitar (play twice, interpret ad lib)

e|----------------13-----------------14-14-17-12-12-15-------14----
B|-15-15-13-15-15----17-17-13-15-15--------------------15-15----14-
G|-----------------------------------------------------------------
D|-----------------------------------------------------------------
A|-----------------------------------------------------------------
E|-----------------------------------------------------------------


repeat chorus, verse, chorus

outro on D

fade out on Am/C - D/A


Добавлено: 11.10.2013
Другие материалы по этой песне:
  • Аккорды и текст

Страница создана 05.04.2012
http://primanota.ru/enya/adiemus-chords.htm
Привет, Гость.
Предлагаем пройти революционный курс по гитаре.
Подарок от PrimaNota.Ru, забирай!