PrimaNota.ru - самый крупный в мире бесплатный архив песенных текстов, аккордов, табулатур и нот


Envy - Weve Got Time - таба, видео

Регистрация Запомнить меня
Войти через:  Facebook Google Twitter Vk Yandex Mail.ru

Envy - Weve Got Time - таба, видео

Печатать
Просмотров: 211
Уроки эстрадного вокала в Санкт-Петербурге
----------------------------------------------------------------------------
                             We've Got Time - ~E.n.V.Y.~
----------------------------------------------------------------------------
Tabbed by: Teddynezz
Email: Teddynezz@aol.com

Tuning: Drop D

| /  slide up
| \  slide down
| h  hammer-on
| p  pull-off
| ~  vibrato
| +  harmonic
| x  Mute note
| ^ bend up
| * muted strum
| t pick tapping (Example: 19t5p12 tap the 19 while holding the 15 and 12 down then pull
from the 15 to the 12 its usualy played in 4's or 8's)
===============================================================================


e|--------------------------------|
B|--------------------------------|
G|--------------------------------|
D|--------------------------------|
A|----0--3--5--6--8--6--5--0-3h5--|
E|----0--3--5--6--8--6--5--0-3h5--|

x3 and the last one ends in the following manner

e|-------------------------|
B|-------------------------|
G|-------------------------|
D|-------------------------|
A|--0-0-3s5-0-0-3/5-5p3p0--|
E|--0-0-3s5-0-0-3/5-5p3p0--|

Play completely 2 times

Interlude:

e|------------------------------------------------------------|
B|------------------------------------------------------------|
G|------------------------------------------------------------|
D|------------------------------------------------------------|
A|----------------------------------------------0(Let ring)---|
E|--0-2-3-2-3-5-3-5-7-5-7-8-10-8-10-12-10-12-13^-0(let ring)--|

e|-----------------------*------*-----*-----------------------------------------|
B|-----------------------*------*-----*-----------------------------------------|
G|-----------------------*------*-----*-----------------------------------------|
D|-----------------------*------*-----*-----------------------------------------|
A|-----------------------*------*-----*-----------------------------------------|
E|-----------------------*------*-----*-----------------------------------------|


Verse:

e|-----------------------------------|
B|-----------------------------------|
G|-----------------------------------|
D|-----------------------------------|
A|-----------------------------------|
E|-------0-13-12---0-13-12-10-12-13--|

Repeat 4 times

Chorus

e|--------------------------------------------------------------|
B|--------------------------------------------------------------|
G|--------------------------------------------------------------|
D|--------------------------------------------------------------|
A|----0--0-----0--0--------0--0----0---0--------0--0---------0--|
E|----0--0-5h6p0--0-5h6h8--0--0-5h6p0--0-5h6p3--0--0-5h6p5h6p0--|

repeat twice

Solo:

e|---------------------------------------------------------------------------------|
B|---------------------------------------------------------------------------------|
G|---------------------------------------------------------------------------------|
D|---------------------------------------------------------------------------------|
A|----------10t6p3-10t6p3-10t6p3-10t6p3-11t6p3-11t6p3-11t6p3-11t6p3-9t5p2-9t5p2----|
E|---------------------------------------------------------------------------------|

-------------------------------------------|
-------------------------------------------|
-------------------------------------------|
-------------------------------------------|
9t5p2-9t5p2-10t5p2-10t5p2-10t5p2-10t5p2----|
-------------------------------------------|

e|-------------------------1-3-4---------------|
B|-------------------1-3-4---------------------|
G|-------------0-2-4---------------------------|
D|-------0-2-3---------------------------------|
A|-0-2-3--------------------------0(let ring)--|
E|--------------------------------0(let ring)--|

Chorus X 2

your welcome this song is not to difficult even for a beginner i made the song my self
it should be interesting what you guys think of it enjoy!

~Teddynezz~
Добавлено: 19.04.2012
Другие материалы по этой песне:
  • Аккорды и текст

Страница создана 19.04.2012
http://primanota.ru/envy/weve-got-time-chords.htm
Привет, Гость.
Предлагаем пройти революционный курс по гитаре.
Подарок от PrimaNota.Ru, забирай!