PrimaNota.ru - самый крупный в мире бесплатный архив песенных текстов, аккордов, табулатур и нот


Envy On The Coast - The Great American T-shirt Racket - таба, видео

Регистрация Запомнить меня
Войти через:  Facebook Google Twitter Vk Yandex Mail.ru

Envy On The Coast - The Great American T-shirt Racket - таба, видео

Печатать
Просмотров: 113
-------------------------------------------------------------------------
The Great American T-Shirt Racket
Envy On The Coast
Lowcountry
-------------------------------------------------------------------------

Tuning: Drop D

Some parts in this may not be correct like 1:58, 
It's just the basics. Theres a lot of effects and 
feedback that make it hard to hear. This is missing
the lead chorus and a couple small things. 
Please tell me any corrections you have!! I didn't 
spend too much time on it, i just wanted to put it out
there so other people can perfect it. 


   Intro/Verse
e|--------------------------------------------------------------------|
B|--------------------------------------------------------------------|
G|---4------------5------4--------------------------------------------|
D|----------3---------------------------------------------------------|
A|--------------------------------------------------------------------|
E|--------------------------------------------------------------------|

    Chorus
e|--------------------------------------------------------------------|
B|--------------------------------------------------------------------|
G|--------------------------------------------------------------------|
D|---5------------8------------1------------3-------------------------|
A|---5------------8------------1------------3-------------------------|
E|---5------------8------------1------------3-------------------------|


    Solo Lead
e|---------------------------------------------------------------------|
B|---------------------------------------------------------------------|
G|-----3-5-77-5-0-3---3----5--3----------------------------------------|
D|---5--------------5---55---------------------------------------------|
A|---------------------------------------------------------------------|
E|---------------------------------------------------------------------|

   Solo Rhythm 
  (try various bending or slide in from the 4th fret)
e|---------------------------------------------------------------------|
B|---------------------------------------------------------------------|
G|---7---7b------------------------------------------------------------|
D|---5---5-------------------------------------------------------------|
A|---5---5-------------------------------------------------------------|
E|---5---5-------------------------------------------------------------|

    1:58 are you happy now...     2:03
e|---------------------------------------------------------------------|
B|---------------------------------------------------------------------|
G|-------------------------------------------10b----12b----------------|
D|----1----------------------------------------------------------------|
A|----1----------------------------------------------------------------|
E|----1----------------------------------------------------------------|

     2:11  
e|---------------------------------------------------------------------|
B|---------------------------------------------------------------------|
G|---------------------------------------------------------------------|
D|-----------*-FEEDBACK*-----------------------------------------------|
A|---------------------------------------------------------------------|
E|--5~-----------------------------------------------------------------|

    Chorus
e|---------------------------------------------------------------------|
B|---------------------------------------------------------------------|
G|---------------------------------------------------------------------|
D|---5------------8------------1------------3--------------------------|
A|---5------------8------------1------------3--------------------------|
E|---5------------8------------1------------3--------------------------|


e|---------------------------------------------------------------------|
B|---------------------------------------------------------------------|
G|---4------------5------4---------------------------------------------|
D|----------3----------------------------------------------------------|
A|---------------------------------------------------------------------|
E|---------------------------------------------------------------------|
Добавлено: 28.04.2012
Другие материалы по этой песне:
  • Аккорды и текст

Страница создана 28.04.2012
http://primanota.ru/envy-on-the-coast/the-great-american-t-shirt-racket-chords.htm
Привет, Гость.
Предлагаем пройти революционный курс по гитаре.
Подарок от PrimaNota.Ru, забирай!