PrimaNota.ru - самый крупный в мире бесплатный архив песенных текстов, аккордов, табулатур и нот


Envy On The Coast - Temper Temper - текст песни, таба, видео

Регистрация Запомнить меня
Войти через:  Facebook Google Twitter Vk Yandex Mail.ru

Envy On The Coast - Temper Temper - текст песни, таба, видео

Печатать
Просмотров: 301
Уроки эстрадного вокала в Санкт-Петербурге
ENVY ON THE COAST
"Temper, Temper"

Tuning: Standard (E-A-D-G-B-e)

Tabbed by: Seth Halperin
           Warped240@yahoo.com


Author's Note: I'm surprised nobody has tabbed this song out yet.
It's really very easy. This is all of it, minus
some of the random, minor lead parts. Shoot me an email if you've got any
questions. Enjoy.

----------------------------------------------------------------------------------------------------

Intro
e-------------------------------------------------------------|
B-------------------------------------------------------------|
G----------------------------------------/-7------------------|
D----------------------------------------/-x------------------|
A---555555555555-------------------------/-5------------------|
E------------------66666666--3333333--------------------------|
"Temper temper, I never wanted to be temper temper, I never wanted to be
mister mister, I can't hold it in."

                                                                        (harmonic)
e-----------------------------------------------[5]*-----------|
B-----------------------------------------------[5]*-----------|
G-----------------------------------------------[5]*-----------|
D--------------------------------------------------------------|
A---555555555555-----------------------------------------------|
E-----------------66666666-88888888--33333333------------------|
"No...never never, I had a feeling this would never never, I had a feeling
this would never leave, I've got a wick to burn my skin"


Pre-Verse Part 2x
e-------------------------------------------------10-----10-----10-----10--------|
B---6666666---------------------------------------13b15--13b15--13b15--13b15-----|
G---7777777----77777777----22222222----4--4444-----------------------------------|
D---7777777----88888888----33333333----5--5555-----------------------------------|
A---5555555----88888888----33333333----5--5555-----------------------------------|
E--------------66666666----11111111----3--3333-----------------------------------|


Part right before verse
e----------------------------------------------------------|
B----------------------------------------------------------|
G----------------------------------------------------------|
D----------------------------------------------------------|
A--55555555-5-5-3h5-5555555--------3h5---------------------|
E----------------------------3h5---------------------------|

Verse
e------------------------------------------------------------|
B------------------------------------------------------------|
G------------------------------------------------------------|
D------------------------------------------------------------|
A---55555-5-3h5 555555---------------------------------------|
E-----------------------66666666--3333333--------------------|
"Temper temper, I never wanted to be temper temper, I never wanted to be
mister mister, I can't hold it in."


e--------------------------------------------------------------|
B--------------------------------------------------------------|
G--------------------------------------------------------------|
D--------------------------------------------------------------|
A---1212121212121212---1010101010101010--88888888--77777777----|
E--------------------------------------------------------------|

e----------------------------------------------------------|
B----------------------------------------------------------|
G----------------------------------------------------------|
D----------------------------------------------------------|
A---555555555555--777777777-88888888---1212121212121212----|
E----------------------------------------------------------|
"No...never never, I had a feeling this would never never, I had a feeling
this would never leave, I've got a wick to burn my skin...yeaaa"

Chorus
e----------------------------------------------------------|
B----------------------------66666666----------------------|
G---7777777777---66666666----77777777----222222222---------|
D---8888888888---77777777----77777777----333333333---------|
A---8888888888---77777777----55555555----333333333---------|
E---6666666666---55555555----------------111111111---------|
"So I bottled it up, and kept the words to myself, and let the
anger collect for a better day, when the words are aged
the war is waged, and you'll watch me blow. I can be your...
powder keg...."


e--------------------------------------------------------|
B--------------------------------------------------------|
G---77xx---66xx------------------------------------------|
D---88xx---77xx---10-10-10-10----------------------------|
A---88xx---77xx---10-10-10-10----------------------------|
E---66xx---55xx---8--8--8--8-----------------------------|
"If you can be my________fuse________"


Back to Verse
Back to Chorus afterwards
Then to:


Bridge:
e---------------------------------------------------x--x-----|
B---------------------------------------------------x--x-----|
G--------6-/-7-------------------------6-/-7--------x--x-----|
D---3----6-/-7---8--~7------------3----6-/-7----8---x--x-----|
A---3----4-/-5---8--~7------------3----4-/-5----8---x--x-----|
E---1------------6--~5-5b---------1-------------6---x--x-----|
"Don't, don't, don't, don't, don't worry doll...I only kill him
in my sleep. Knock knock knock knock knock at your door...
you know I will send him out to sea___"


e----------------------------------------------------------|
B----------------------------------------------------------|
G----------------------------------------------------------|
D----------------------------------------------------------|
A-------------------------555555555555---------------------|
E--66666666--55555555555----------------111111111111-------|
PM - -- - - - - - -- - - - -- - - - -- - - -- - - - - -- - -
"So I bottled it up, and kept the words to myself, and let the
anger collect for a better day.....


e------------------------------------------------------------------|
B----------------------------66666666------------------12b13p10----|
G---7777777777---66666666----77777777----222222222--------------12-|
D---8888888888---77777777----77777777----333333333-----------------|
A---8888888888---77777777----55555555----333333333-----------------|
E---6666666666---55555555----------------111111111-----------------|
......when the words are aged
the war is waged, and you'll watch me blow. I can be your...
powder keg...."


e--------------------------------------------------------|
B--------------------------------------------------------|
G---77xx---66xx------------------------------------------|
D---88xx---77xx---10-10-10-10----------------------------|
A---88xx---77xx---10-10-10-10----------------------------|
E---66xx---55xx---8--8--8--8-----------------------------|
"If you can be my________fuse________"

Ending Riff
e----------------------------------------------------------|
B----------------------------------------------------------|
G----------------------------------------------------------|
D----------------------------------------------------------|
A---5555555555555------------------------------------------|
E--------------------66666666--3333333-----3---------------|
"Temper temper, I never wanted to be temper temper, I never wanted to be
mister mister, I can't hold it in."


Lyrics (Taken from www.purevolume.com/envyonthecoast)

Temper, temper
I never wanted to be
Temper, temper
I never wanted to be
Mr., Mr.
I cant hold it in.
No
Never, never
I had a feeling this would
Never, never
I had a feeling this would never leave,
Ive got a wick to burn my skin.

So I bottled it up and kept the words to myself
and let the anger collect for a better day.
When the words are aged,
The war is waged,
And youll watch me blow.
I can be your powder keg.
If you can be my fuse.

Clever, clever
Give me a reason to be
Clever, clever
Give me a reason to be
Placing all my trust in your hands.
No
Never, never
Dont even fuck with me,
Never, never
I tell myself that I know,
but Ill never know more than your name.

Dont, dont, dont, dont, dont worry doll,
I only kill him in my sleep.
Knock, knock, knock, knock, knock at your door.
You know I will send him out to sea.
Добавлено: 06.03.2012
Другие материалы по этой песне:

Страница создана 06.03.2012
http://primanota.ru/envy-on-the-coast/temper-temper-chords.htm
Привет, Гость.
Предлагаем пройти революционный курс по гитаре.
Подарок от PrimaNota.Ru, забирай!