PrimaNota.ru - самый крупный в мире бесплатный архив песенных текстов, аккордов, табулатур и нот


Envy On The Coast - Sugar Skulls - текст песни, таба, видео

Регистрация Запомнить меня
Войти через:  Facebook Google Twitter Vk Yandex Mail.ru

Envy On The Coast - Sugar Skulls - текст песни, таба, видео

Печатать
Просмотров: 127
Guitar tunings:                                                   KEY:
Guitar #1- Drop D Standard                                        /=slide
Guitar #2- Drop D Standard                                        ~=bend
                                                                  x=dead note
Chorus: Guitar 1


--------5-5-5-5-5-5----------------------------------------------------|
--------6-6-6-6-6-6----------------------------------------------------|
--------7-7-7-7-7-7-5-5-5-5-5-5-5-5------------------------------------|
x-x-0-0-0-0-0-0-0-0-5-5-5-5-5-5-5-5-5-5-5-5-5-5-5-5-8-8-8-8-3-3-3-3----|
x-x-0-0-0-0-0-0-0-0-3-3-3-3-3-3-3-3-5-5-5-5-5-5-5-5-8-8-8-8-3-3-3-3----|
x-x-0-0-0-0-0-0-0-0-----------------5-5-5-5-5-5-5-5-8-8-8-8-3-3-3-3----|


--------5-5-5-5-5-5-----------------------------------------------------|
--------6-6-6-6-6-6-----------------------------------------------------|
--------7-7-7-7-7-7-5-5-5-5-5-5-5-5-------------------------------------|
x-x-0-0-0-0-0-0-0-0-5-5-5-5-5-5-5-5-5-5-5-5-5-5-5-5-8-8-8-8-11-11-11-11-|
x-x-0-0-0-0-0-0-0-0-3-3-3-3-3-3-3-3-5-5-5-5-5-5-5-5-8-8-8-8-11-11-11-11-|
x-x-0-0-0-0-0-0-0-0-----------------5-5-5-5-5-5-5-5-8-8-8-8-11-11-11-11-|


--------------------|
--------------------|
--------------------|
0-0-0-0-0-0-0-------|
0-0-0-0-0-0-0-/~11~-|
0-0-0-0-0-0-0-------|

Guitar 2

  --------5-5-5-5-5-5---------------------------------------------|
  --------6-6-6-6-6-6---------------------------------------------|
2x--------7-7-7-7-7-7-10-10-10-10-10-10-10-10---5/7-10-7-9-7-9-10-|
  x-x-0-0-0-0-0-0-0-0-x--x--x--x--x--x--x--x----------------------|
  x-x-0-0-0-0-0-0-0-0-8--8--8--8--8--8--8--8----------------------|
  x-x-0-0-0-0-0-0-0-0---------------------------------------------|

--------------|
--------------|
--------------|
3/7-2-3-3-5---|
--------------|
--------------|
Добавлено: 02.05.2012
Другие материалы по этой песне:

Страница создана 02.05.2012
http://primanota.ru/envy-on-the-coast/sugar-skulls-chords.htm
Привет, Гость.
Предлагаем пройти революционный курс по гитаре.
Подарок от PrimaNota.Ru, забирай!