PrimaNota.ru - самый крупный в мире бесплатный архив песенных текстов, аккордов, табулатур и нот


Envy On The Coast - Puritan Dirt Song - бас-таба, видео

Регистрация Запомнить меня
Войти через:  Facebook Google Twitter Vk Yandex Mail.ru

Envy On The Coast - Puritan Dirt Song - бас-таба, видео

Печатать
Просмотров: 44
-------------------------------------------------------------------------------
                     PURITAN DIRT SONG - Envy On The Coast
-------------------------------------------------------------------------------
Tabbed by: Bassplayer27
E-mail: 

Tuning: Standard E

G|-----5-5-5---4~-5|-----5-5-5---4~--|-----5-5-5---4~-5-|----5-5-5---4-------|
D|-----------------|---------------75|-----------------5|-------------7~-----|
A|-5~-5------5-----|5~-5------5------|-5~-5------5------|5--5------5---------|
E|-----------------|-----------------|------------------|--------------------|
0:27
G|-----------------------------------5-5-5-4--5--|----5-5-5---4--------------|
D|---------------------------------------------5-|---------------7-----------|
A|-------------------------------5~-5-----5------|5~-5-----5-----------------|
E|-1-333-3333-333-1-333-3333-333-----------------|---------------------------|


G|-----5-5-5---4~-5-|----5-5-5---4-------|-----------------------------------|
D|-----------------5|-------------7~-----|-----------------------------------|
A|-5~-5------5------|5--5------5---------|-----------------------------------|
E|------------------|--------------------|-1-333-3333-333-1-333-3333-333-----|

1:07     7x
G|---------------|-----------------|--5-5-5--4------5-5-5--------------------|
D|---3----3------|---3----3--------|-------------------------9---------------|
A|-5----03--03---|-5----03--03--5~-|-5-----5-----5-5-----5-8-----------------|
E|---------------|-----------------|-----------------------------------------|

1:48

G|-----5-5-5---4~-5-|----5-5-5---4-------|-----5-5-5---4~-5-|----5-5-5-------|
D|-----------------5|-------------7~-----|-----------------5|----------------|
A|-5~-5------5------|5--5------5---------|-5~-5------5------|-5-5-----5~-----|
E|------------------|--------------------|------------------|----------------|

2:14
      7x                                         Pause
G|---------------|-----------------|-----------------------------------------|
D|---3----3------|---3----3--------|-----------------------------------------|
A|-5----03--03---|-5----03--03--5~-|-----------------------------------------|
E|---------------|-----------------|-----------------------------------------|

3:20                                             
G|---------------|--------------|-------------|------------------------------|
D|---3----3------|---3---3------|----3---3----|----3---/5--------------------|
A|-5----03--03---|-5~--35-------|-5----03--03-|-5----35----------------------|
E|---------------|--------------|-------------|------------------------------|

G|------------|-----------|-------------|------------------------------------|
D|---3---3----|---3----3--|---3------3--|----3---/5-3------------------------|
A|-5---03--03-|-5----35-3-|-5---035---5-|-5----35-------5~-------------------|
E|------------|-----------|-------------|------------------------------------|

G|--5-5-5--4-5--------5-5-5---5----------------------------------------------|
D|------------5-----------------3~-------------------------------------------|
A|-5-----5--------5~-5------5------------------------------------------------|
E|---------------------------------------------------------------------------|




| /  slide up
| \  slide down
| h  hammer-on
| p  pull-off
| ~  vibrato
| +  harmonic
| x  Mute note
===============================================================================
Добавлено: 22.03.2016
Другие материалы по этой песне:
  • Аккорды и текст

Страница создана 22.03.2016
http://primanota.ru/envy-on-the-coast/puritan-dirt-song-chords.htm
Привет, Гость.
Предлагаем пройти революционный курс по гитаре.
Подарок от PrimaNota.Ru, забирай!