PrimaNota.ru - самый крупный в мире бесплатный архив песенных текстов, аккордов, табулатур и нот


Envy On The Coast - Paperback - текст песни, бас-таба, видео

Регистрация Запомнить меня
Войти через:  Facebook Google Twitter Vk Yandex Mail.ru

Envy On The Coast - Paperback - текст песни, бас-таба, видео

Печатать
Просмотров: 121
--------------------------------------------------------------------------
			     Paperback-Envy On The Coast
--------------------------------------------------------------------------

Tabbed By : Bassplayer27 / Steve!!
Aim: Supersized27

Tuning:D
Intro
G|--------------------------------------------------------------------------|
D|--------------------------------------------------------------------------|
A|-22222----------------------22222-----------------------------------------|
D|------0-22-024-555555-777777-----000000-222222-77-77----------------------|
Verse 1 14seconds
G|--------------------------------------------------------------------------|
D|--------------------------------------------------------------------------|
A|--------------------------------------------------------------------------|
D|-9-99-9h12-x12x12-x99-9-9-12-7~-4~4x4-------------------------------------|

G|--------------------------------------------------------------------------|
D|--------------------------------------------------------------------------|
A|--------------------------------------------------------------------------|
D|-9-99-9h12-x12x12-x99-9-9-12-7~-4~7---------------------------------------|

G|--------------------------------------------------------------------------|
D|--------------------------------------------------------------------------|
A|--------------------------------------------------------------------------|
D|-9-99-9h12-x12x12-x99-9-9-12-7~-4~455555555-------------------------------|
  
Chorus 57 Seconds
G|--------------------------------------------------------------------------|
D|--------------------------------------------------------------------------|
A|-22222----------------------22222-----------------------------------------|
D|------0-22-024-555555-777777-----000000-222222-x77x777--------------------|

G|--------------------------------------------------------------------------|
D|--------------------------------------------------------------------------|
A|-22222----------------------22222-----------------------------------------|
D|------0-22-024-555555-777777-----000000-222222-77-77----------------------|

Verse 2 1:22
G|--------------------------------------------------------------------------|
D|--------------------------------------------------------------------------|
A|--------------------------------------------------------------------------|
D|-9~--99--12~12~-129-99-7~-77-4~447----------------------------------------|

          These are 11's
G|--------------------------------------------------------------------------|
D|--------------------------------------------------------------------------|
A|--------------------------------------------------------------------------|
D|-9~-9-9-000000000000222-9999999999999111111-7777777744444444555555555-----|

Chorus 1:52
G|--------------------------------------------------------------------------|
D|--------------------------------------------------------------------------|
A|-22222----------------------22222-----------------------------------------|
D|------0-22-024-555555-777777-----000000-222222-x77x777--------------------|

G|--------------------------------------------------------------------------|
D|--------------------------------------------------------------------------|
A|-22222----------------------22222-----------------------------------------|
D|------0-22-024-555555-777777-----000000-222222-77-77----------------------|

Breakdown  x3
G|--------------------------------------------------------------------------|
D|--------------------------------------------------------------------------|
A|--------------------------------------------------------------------------|
D|-22-22-4-55-55-5-77-77----------------------------------------------------|

G|-----------------14h16-----|-------------------14h16--------------14h16---|
D|---------------------------|----------------------------------------------|
A|---------------------------|----------------------------------------------|
D|-2222222222222222----------|------22-0h2-22-0h2------22-0h2-22-0h2--------|

G|--------------------------------------------------------------------------|
D|--------------------------------------------------------------------------|
A|-----------------------------5--------------------------------------------|
D|-22-22-22-2------9~--0~--2457-7-------------------------------------------|

Chorus/Ending
G|--------------------------------------------------------------------------|
D|--------------------------------------------------------------------------|
A|-222222-------------------------------------------------------------------|
D|-------0-22------5-5555-7-7777--------------------------------------------|

G|--------------------------------------------------------------------------|
D|--------------------------------------------------------------------------|
A|22222----------------------22222------------------------------------------|
D|-----000000-222222-x77x777------0-22-024555555-777777---------------------|

G|--------------------------------------------------------------------------|
D|--------------------------------------------------------------------------|
A|-222222-------------------------------------------------------------------|
D|-------000000-222222-77-77--22-22-4-5~------------------------------------|

Hope you like it, more tabs to come, Fun Song PLease Rate!! Thanks
Добавлено: 27.06.2012
Другие материалы по этой песне:
  • Аккорды и текст

Страница создана 27.06.2012
http://primanota.ru/envy-on-the-coast/paperback-chords.htm
Привет, Гость.
Предлагаем пройти революционный курс по гитаре.
Подарок от PrimaNota.Ru, забирай!