PrimaNota.ru - самый крупный в мире бесплатный архив песенных текстов, аккордов, табулатур и нот


Envy On The Coast - Mirrors - текст песни, таба, видео

Регистрация Запомнить меня
Войти через:  Facebook Google Twitter Vk Yandex Mail.ru

Envy On The Coast - Mirrors - текст песни, таба, видео

Печатать
Просмотров: 206
Mirrors - Envy On The Coast

Tabbed by my friend Jas. He wrote it in MS Word, so I had to rearrange it to make it 
pretty. I take no credit.

Legend:
\\\
///  Pickslide
.    Palm Mute
h    Hammer On
p    Pull Off
x    Mute Note
/    Slide Up
\    Slide Down
~    Vibrato
Drop D
_____________________________________________________________________________

Intro

*Piano*

Guitar I
E|----------------|-------------------|
B|----------------|-------------------|
G|----------------|-------------------|
D|-xxxxx-xx-xxxxx-|-5-5-5-5-5-5-5-/14\|
A|-xxxxx-xx-xxxxx-|-5-5-5-5-5-5-5-/14\|
D|-xxxxx-xx-xxxxx-|-5-5-5-5-5-5-5-/14\|

E|----------------|----------------|----------------|-----------------||
B|----------12\---|---------9------|---------6------|---------6-------||
G|----------19\---|---------10-----|-5-5-5---7------|---------7------o||
D|-0-0-0----------|----------------|----------------|----------------o|| x2
A|----------------|-8-8-8----------|----------------|-7-7-7-----------||
D|----------------|----------------|----------------|-----------------||

Riff during Verse

You can figure out the measures and timings. Jas didn't put them in.

Guitar I
E|-17-------------------------18-------18------20-------20------|
B|--------17h18p17---17h18p17--------17------17---17-18----17-18|
G|----19--------19---------------19--------19-------------------|
D|--------------------------------------------------------------|
A|--------------------------------------------------------------|
D|--------------------------------------------------------------|

E|---------------------------------------7-|
B|-17h18p17-17h18p17-17h18p17-17h18p17---7-|
G|---------------------------------------7-|
D|-----------------------------------------|
A|-----------------------------------------|
D|-----------------------------------------|
                                         .

Chorus

Guitar I

E|-----------------||
B|-----------------||
G|-3-5---7-7--10--o||
D|-3-5---6-7--10--o|| x2
A|-1-3---4-5--8----||
D|-----------------||

E|---------------------------------------------------|
B|-------------6-----6------6-6-5--------------------|
G|-------------7-----7------------6-----5------------|
D|-5----7---------------------------5-7-5------------|
A|-5----7--0-0----0-0---0-0---------5-7-3-\\\\\\\\\--|
D|-5----7--0-0----0-0---0-0---------5-7---/////////--|

                 Delay Effect & x2
E|-------------/---------------------13----------\------------|
B|-------------|-6--6--3-------10h11-------------|-7-7-7-7~---|
G|-------------|-7--7--0--10-10----------6--6--3-|----------7-|
D|-7-5-3-2-0~--|-5--8--5-----------------7--7--0-|------------|
A|-7-5-3-2-0~--|-------------------------5--8--5-|------------|
D|-7-5-3-2-0~--\---------------------------------/------------|
                                                   . . . .  .
                      x2
E|-----------------/------------------5-----\-----|---------------7-|
B|-----------------|---------5-6-5-6----6-3-|-----|-3-------------7-|
G|-----------10-9~-|-6-7-6-7------------7-4-|-5---|-4-------------7-|
D|-12-11-12--------|--------------------8-5-|---5-|-5---------------|
A|-----------------|------------------------|-----|----1~4~5~8~-----|
D|-----------------\------------------------/-----|-----------------|
                                              . .                 .
Repeat Chorus

E|---------------------------------------------------------|
B|-----7-----6-----7-6-------------------------------------|
G|---------------------7~-------------5~-------------------|
D|-0-0---0-0---0-0---------5555-7777--3~--\\\\\\\-7-5-3-2--|
A|-0-0---0-0---0-0---------5555-7777--3~--///////-7-5-3-2--|
D|-0-0---0-0---0-0---------5555-7777--------------7-5-3-2--|
                           .... ....

E|----------------------||-12-12h13p12------------------------------||
B|----------------------||--------------13-13h15p13h15p13h15p13h15--||
G|----------------------||-----------------------------------------o||
D|-0-x-0-x-0-x-0-x-0-x--||-----------------------------------------o|| x6
A|-0-x-0-x-0-x-0-x-0-x--||------------------------------------------||
D|-0-x-0-x-0-x-0-x-0-x--||------------------------------------------||

E|-13-13-13-13-13-13--|
B|-12-12-12-12-12-12--|
G|-x--x--x--x--x--x---|
D|-10-10-10-10-10-10--|
A|--------------------|
D|--------------------|

Repeat Chorus

Outro

E|----------------|
B|----------------|
G|----------------|
D|-7-5-3-2--------|
A|-7-5-3-2--------|
D|-7-5-3-2--------|

That's it! I know it's confuzzuling, but I'm just the messenger. Don't shoot the 
Or kick him down the pit of doom.
Добавлено: 22.07.2012
Другие материалы по этой песне:

Страница создана 26.03.2012
http://primanota.ru/envy-on-the-coast/mirrors-chords.htm
Привет, Гость.
Предлагаем пройти революционный курс по гитаре.
Подарок от PrimaNota.Ru, забирай!