PrimaNota.ru - самый крупный в мире бесплатный архив песенных текстов, аккордов, табулатур и нот


Enuendo - Ariette - таба, видео

Регистрация Запомнить меня
Войти через:  Facebook Google Twitter Vk Yandex Mail.ru

Enuendo - Ariette - таба, видео

Печатать
Просмотров: 98
Band: Enuendo
Song: Ariette
Transcriber: Ryan Gallen


\ - slide
h - hammer on
p - pull off
b - bend
* - pinch harmonic
x - palm mute

Drop-D Tuning (DADGBe)

(clean or light distortion)
Riff A  x2
e-------------------------------------------------
B-------------------------------------------------
G---------7---9---7---9---10---7---9---7---5-5h7--
D----------0---0---0---0----0---0---0---0---------
A------0-----0--0----0---0---0----0---0---0-------
D--7/--0------------------------------------------

Riff B  x1
e---------------------------------------------------
B--8----8----8----8----8----7----7----7----7----7---
G----9----9----9----9----9----9----9----9----9----9-
D------0----0----0----0----0----0----0----0----0----
A---------------------------------------------------
D---------------------------------------------------

Riff A  x2
e-------------------------------------------------
B-------------------------------------------------
G---------7---9---7---9---10---7---9---7---5-5h7--
D----------0---0---0---0----0---0---0---0---------
A------0-----0--0----0---0---0----0---0---0-------
D--7/--0------------------------------------------

Riff B  x1
e---------------------------------------------------
B--8----8----8----8----8----7----7----7----7----7---
G----9----9----9----9----9----9----9----9----9----9-
D------0----0----0----0----0----0----0----0----0----
A---------------------------------------------------
D---------------------------------------------------


Riff C x1
   x * x * x * x * x *  x * x * x * x * x *
e---------------------------------------------
B---------------------------------------------
G----7---9---7---9---10---7---9---7---5---5h7-
D---------------------------------------------
A--0---0---0---0---0----0---0---0---0---0-----
D---------------------------------------------

Riff D x2
e------------------------------------
B------------------------------------
G------------------------------------
D------------------------------------
A--5-7-7-7-7-7-7--5-7-7-7-7-7--5-7-7-
D--5-7-7-7-7-7-7--5-7-7-7-7-7--5-7-7-

e------------------------------------
B------------------------------------
G------------------------------------
D------------------------------------
A--0-3-3-3-3-3-3--0-3-3-3-3-3--2-0-0-
D--0-3-3-3-3-3-3--0-3-3-3-3-3--2-0-0-

Riff A  x1
e-------------------------------------------------
B-------------------------------------------------
G---------7---9---7---9---10---7---9---7---5-5h7--
D----------0---0---0---0----0---0---0---0---------
A------0-----0--0----0---0---0----0---0---0-------
D--7/--0------------------------------------------

Riff D x4
e------------------------------------
B------------------------------------
G------------------------------------
D------------------------------------
A--5-7-7-7-7-7-7--5-7-7-7-7-7--5-7-7-
D--5-7-7-7-7-7-7--5-7-7-7-7-7--5-7-7-

e------------------------------------
B------------------------------------
G------------------------------------
D------------------------------------
A--0-3-3-3-3-3-3--0-3-3-3-3-3--2-0-0-
D--0-3-3-3-3-3-3--0-3-3-3-3-3--2-0-0-

Riff E
     x x        x x        x x         x x
e------------------------------------------------
B--------3----------5----------6-----------8-----
G--------5b7--------7b9--------8b10--------10b12-
D--0----------0----------0-----------0-----------
A--0-0-0------0-0-0------0-0-0-------0-0-0-------
D--0-0-0------0-0-0------0-0-0-------0-0-0-------

Riff B  x1
e---------------------------------------------------
B--8----8----8----8----8----7----7----7----7----7---
G----9----9----9----9----9----9----9----9----9----9-
D------0----0----0----0----0----0----0----0----0----
A---------------------------------------------------
D---------------------------------------------------

Riff C x1
   x * x * x * x * x *  x * x * x * x * x *
e---------------------------------------------
B---------------------------------------------
G----7---9---7---9---10---7---9---7---5---5h7-
D---------------------------------------------
A--0---0---0---0---0----0---0---0---0---0-----
D---------------------------------------------

Riff F
e-----------------------------------------
B--8-8--8-8--8-8--8-8--7-7--7-7--7-7--7-7-
G--9-9--9-9--9-9--9-9--9-9--9-9--9-9--9-9-
D--0-0--0-0--0-0--0-0--0-0--0-0--0-0--0-0-
A-----------------------------------------
D-----------------------------------------

Riff D x4
e------------------------------------
B------------------------------------
G------------------------------------
D------------------------------------
A--5-7-7-7-7-7-7--5-7-7-7-7-7--5-7-7-
D--5-7-7-7-7-7-7--5-7-7-7-7-7--5-7-7-

e------------------------------------
B------------------------------------
G------------------------------------
D------------------------------------
A--0-3-3-3-3-3-3--0-3-3-3-3-3--2-0-0-
D--0-3-3-3-3-3-3--0-3-3-3-3-3--2-0-0-

End
e-------------------
B-------------------
G------------------- (let last
D-0--0-0--0-0-0---0-   note ring)
A-0--0-0--0-0-0---0-
D-0--0-0--0-0-0---0-


***when playing Riff D x4 on the 3rd time instead
of playing A-5-7-7 play A-7-8-8
           D-5-7-7      D-7-8-8

if you have any questions or comments please email
them to me at flyin_ryan420@hotmail.com

_________________________________________________________________
     
Добавлено: 19.06.2013
Другие материалы по этой песне:
  • Аккорды и текст

Страница создана 19.06.2013
http://primanota.ru/enuendo/ariette-chords.htm
Привет, Гость.
Предлагаем пройти революционный курс по гитаре.
Подарок от PrimaNota.Ru, забирай!