PrimaNota.ru - самый крупный в мире бесплатный архив песенных текстов, аккордов, табулатур и нот


Entwine - Surrender - текст песни, таба, бас-таба, видео

Регистрация Запомнить меня
Войти через:  Facebook Google Twitter Vk Yandex Mail.ru

Entwine - Surrender - текст песни, таба, бас-таба, видео

Печатать
Просмотров: 236
Entwine
Surrender
Tuning Drop D

Intro

  guitar1                                       6 time extend the ending
e--------------------------------------      ---------------------------|
b--------------------------------------      ---------------------------|
g--------------------------------------      ---------------------------|
d 12------12------12-------------------      ---------------------------|
a --12 13---12-13---12--17-15-14--14-15      17-15-14--14-15------------|
d ------------------------------------- 6x   ---------------------------|
guitar2
e----------------------------------------------------------------------------|
b----------------------------------------------------------------------------|
g----------------------------------------------------------------------------|
d 8888-9999-0-00-00-8888-9999-0-00-00--8888-9999--3333-7777--8-88-88-9-99-99-|
a 8888-9999-0-00-00-8888-9999-0-00-00--8888-9999--3333-7777--8-88-88-9-99-99-|
d 8888-9999-0-00-00-8888-9999-0-00-00--8888-9999--3333-7777--8-88-88-9-99-99-|


Verse
both
e ---------------------------------------------------------------|
b ---------------------------------------------------------------|
g ---------------------------------------------------------------|
d 777777777777777788888888888888877777777777777775555555555555555
a 555555555555555555555555555555555555555555555553333333333333333
d ---------------------------------------------------------------2x

Pre-Chorus
both
e----------------------------------|
b----------------------------------|
g----------------------------------|
d 555555555555555577778888999999999
a 555555555555555577778888999999999
d 555555555555555577778888999999999

Chorus
guitar 2
e----------------------------------------------------------------------------|
b----------------------------------------------------------------------------|
g----------------------------------------------------------------------------|
d 8888-9999-0-00-00-8888-9999-0-00-00--8888-9999--3333-7777--8-88-88-9-99-99-|
a 8888-9999-0-00-00-8888-9999-0-00-00--8888-9999--3333-7777--8-88-88-9-99-99-|
d 8888-9999-0-00-00-8888-9999-0-00-00--8888-9999--3333-7777--8-88-88-9-99-99-|

guitar1
e---------------------------------------|
b---------------------------------------|
g---------------------------------------|
d 12------12------12--------------------|
a --12 13---12-13---12--17-15-14--14-15-|
d --------------------------------------|

Verse
both
e ---------------------------------------------------------------|
b ---------------------------------------------------------------|
g ---------------------------------------------------------------|
d 777777777777777788888888888888877777777777777775555555555555555
a 555555555555555555555555555555555555555555555553333333333333333
d ---------------------------------------------------------------2x

Pre-Chorus
both
e----------------------------------|
b----------------------------------|
g----------------------------------|
d 555555555555555577778888999999999
a 555555555555555577778888999999999
d 555555555555555577778888999999999

Chorus
guitar 2
e----------------------------------------------------------------------------|
b----------------------------------------------------------------------------|
g----------------------------------------------------------------------------|
d 8888-9999-0-00-00-8888-9999-0-00-00--8888-9999--3333-7777--8-88-88-9-99-99-|
a 8888-9999-0-00-00-8888-9999-0-00-00--8888-9999--3333-7777--8-88-88-9-99-99-|
d 8888-9999-0-00-00-8888-9999-0-00-00--8888-9999--3333-7777--8-88-88-9-99-99-|

guitar1
e---------------------------------------|
b---------------------------------------|
g---------------------------------------|
d 12------12------12--------------------|
a --12 13---12-13---12--17-15-14--14-15-|
d --------------------------------------|


Bridge
e-----------------------------------|
b-----------------------------------|
g-----------------------------------|
d 0-003-0-0000-036-0-003-0-0000-030-|
a 0-003-0-0000-036-0-003-0-0000-030-|
d 0-003-0-0000-036-0-003-0-0000-030-|4x


guitar1
e---------------------------------------------|
b---------------------------------------------|      solo part
g---------------------------------------------|
d 12------12------12--------------------------|
a --12 13---12-13---12--17-15-14--14-15-------|
d --------------------------------------------|2x
guitar2 2x
e----------------------------------------------------------------------------|
b----------------------------------------------------------------------------|
g----------------------------------------------------------------------------|
d 8888-9999-0-00-00-8888-9999-0-00-00--8888-9999--3333-7777--8-88-88-9-99-99-|
a 8888-9999-0-00-00-8888-9999-0-00-00--8888-9999--3333-7777--8-88-88-9-99-99-|
d 8888-9999-0-00-00-8888-9999-0-00-00--8888-9999--3333-7777--8-88-88-9-99-99-|


Ending
e-------------|
b-------------|
g-------------|
d 8888-9999-2~~
a 8888-9999-2~~
d 8888-9999-0~~
Добавлено: 11.07.2012
Другие материалы по этой песне:

Страница создана 13.03.2012
http://primanota.ru/entwine/surrender-chords.htm
Привет, Гость.
Предлагаем пройти революционный курс по гитаре.
Подарок от PrimaNota.Ru, забирай!