PrimaNota.ru - самый крупный в мире бесплатный архив песенных текстов, аккордов, табулатур и нот


Entwine - Stream Of Life - текст песни, таба, видео

Регистрация Запомнить меня
Войти через:  Facebook Google Twitter Vk Yandex Mail.ru

Entwine - Stream Of Life - текст песни, таба, видео

Печатать
Просмотров: 172
song: Stream of life
album:Time of despair
standard tuning or drop D

Intro:

     e-----------------------------------------|
     B-5-7-9-9Brb11---5-7-2~~~---5-4-5-(4)-2~~-|
  2x G-----------------------------------------|  2x this part
     D-----------------------------------------|
     A-----------------------------------------|
     D-----------------------------------------|

      *rhythm used during all song!
     e-----------------------------------------|
     B-----------------------------------------|
     G-----------------------------------------|
     D-4-4-4-4-4-4-4-2-2-2-2-2-2-2-------------|
     A-4-4-4-4-4-4-4-2-2-2-2-2-2-2-------------|
     D-4-4-4-4-4-4-4-2-2-2-2-2-2-2-------------|

*rate used throughout the whole song

ritmy riff:

e-----------------------------------------------------------------------|
B-----------------------------------------------------------------------|
G-----------------------------------------------------------------------|
D-----------------------------------------------------------------------|
A-2-4-2-4-2-4-2-4-2-4--4-6-4-2------------------------------------------|
D-----------------------------------------------------------------------|

clean riff:
e---------0^^^---|
B-----3----------|
G---2---2--------|
D-0--------------|
A----------------|
D----------------|

solo:
e-----------------------------------------------------------------------|
B-----6--4~~~-----6--4~~~---4~~-6-4~~~-6--4~~~------6--4~~~-----6--4~~~-|
G-4-4---------4-4---------4--------------------4-4----------4-4---------|
D-----------------------------------------------------------------------|
A-----------------------------------------------------------------------|
D-----------------------------------------------------------------------|

e--------------------------------------------------|
B-4-2~~----6s4-----6-4~~-----6-4~~-4-2~~-----6-4~~-|
G------4-4-----4-4-------4-4-------------4-4-------|
D--------------------------------------------------|
A--------------------------------------------------|
D--------------------------------------------------|

guitar 1           guitar 2
e-----------      e----------|
B------6s4--      B------8s6-|
G--4-4------      G--6-6-----|
D-----------      D----------|
A-----------      A----------|
D-----------      D----------|

e-------------|
B------6h4p6--|
G--4-4--------|
D-------------|
A-------------|
D-------------|


riff final:
     e-----------------------------------------|
     B-----------------------------------------|
     G-6-6-6s8-8-8-8s10-10-10-10-10-10---------|
     D-x-x-x-x-x-x-x-x--x--x--x--x--x----------|
     A-4-4-4s6-6-6-6s8--8--8--8--8--8----------|
     D-----------------------------------------|

       e-----------------------------------------|
       B-5-7-9-9Brb11---5-7-2~~~---5-4-5-(4)-2~~-|
       G-----------------------------------------|
   2X  D-----------------------------------------|
       A-----------------------------------------|
       D-----------------------------------------|

legend(used)
Brb= bend release bend
()=ghost note
~ =vibrato
^ = hold note
X= dead note
s= slide
h=hammer-on
p=pull-off
Добавлено: 04.04.2012
Другие материалы по этой песне:

Страница создана 04.04.2012
http://primanota.ru/entwine/stream-of-life-chords.htm
Привет, Гость.
Предлагаем пройти революционный курс по гитаре.
Подарок от PrimaNota.Ru, забирай!