PrimaNota.ru - самый крупный в мире бесплатный архив песенных текстов, аккордов, табулатур и нот


Entwine - Saint Of Sorrow - таба, видео

Регистрация Запомнить меня
Войти через:  Facebook Google Twitter Vk Yandex Mail.ru

Entwine - Saint Of Sorrow - таба, видео

Печатать
Просмотров: 93
                     
       
D||---------------------------------|
A||---------------------------------|
F||---------------------------------|
C||--3--5-----3--5---3--5---3--5----|
G||--3--5-----3--5---3--5---3--5----|
C||--3--5-----3--5---3--5---3--5----|


verse 1                                                      
  PM PM    PM PM  PM PM  PM                                      
----------------------------------|-----------------------------|
----------------------------------|-----------------------------|
----------------------------------|-----------------------------|
--3--5-----3--5---3--5---3--------|--------------------------3--|
--3--5-----3--5---3--5---3--------|--------8-8-8-7-----------3--|
--3--5-----3--5---3--5---3---5b---|--0--0-----------0--5-5-5-3--|


   

chours(2X)
 
--------------------------------------------------|
--------------------------------------------------|
--------------------------------------------------|
--0--0--0--0--3--3--3--3--5--5--5--5--8--8--8--8--|
--0--0--0--0--3--3--3--3--5--5--5--5--8--8--8--8--|
--0--0--0--0--3--3--3--3--5--5--5--5--8--8--8--8--|

--------------------------------------------------||
--------------------------------------------------||
--------------------------------------------------||
--0--0--0--0--3--3--3--3--5--5--5--5--3--3--3--3--||
--0--0--0--0--3--3--3--3--5--5--5--5--3--3--3--3--||
--0--0--0--0--3--3--3--3--5--5--5--5--3--3--3--3--||



keys:

b= bend;
PM= palm mute;
2x= two times
Добавлено: 07.05.2016
Вам также может быть интересно:
Другие материалы по этой песне:
  • Аккорды и текст

Страница создана 07.05.2016
http://primanota.ru/entwine/saint-of-sorrow-chords.htm
Привет, Гость.
Предлагаем пройти революционный курс по гитаре.
Подарок от PrimaNota.Ru, забирай!