PrimaNota.ru - самый крупный в мире бесплатный архив песенных текстов, аккордов, табулатур и нот


Entwine - My Serenity - текст песни, таба, видео

Регистрация Запомнить меня
Войти через:  Facebook Google Twitter Vk Yandex Mail.ru

Entwine - My Serenity - текст песни, таба, видео

Печатать
Просмотров: 218
Drop C#

intro(clean guitar)
D#-------------13~~---------------12~~---|
A#-14p11-11-11-----11-14p11-11-11--------|
F#---------------------------------------| (2X)
C#---------------------------------------|
G#---------------------------------------|
C#---------------------------------------|

rhythm >> intro(0m:07s)
D#-------------------------------|
A#-------------------------------|
F#-------------------------------| 
C#-0-0--0--0-6/--0-0--0--0-3/----|
G#-0-0--0--0-6/--0-0--0--0-3/----|
C#-0-0--0--0-6/--0-0--0--0-3/----|
 PM. .  .  .     . .  .  . 
solo

D#-------------------------------------|
A#-------------------------------------|
F#-5~~~~-6-----6gs8-6~-5-5-5b6/3~~-3---| 
C#---------6~~-------------------------|
G#-------------------------------------|
C#-------------------------------------|

D#----------------------------------------------|
A#-13~~~~-13~~-13~~-13-11-13-14-14-14-13-11~~~--|
F#----------------------------------------------| 
C#----------------------------------------------|
G#----------------------------------------------|
C#----------------------------------------------|

D#-------------------------------|
A#-13b15/11---(10~)-(8)-(6~)-----|
F#-------------------------------| 
C#-------------------------------|
G#-------------------------------|
C#-------------------------------|


legend(key's)
p=pull off
~=vibrato
gs= grace note with slide
/= slide
( )= ghost note
Добавлено: 21.04.2012
Другие материалы по этой песне:

Страница создана 21.04.2012
http://primanota.ru/entwine/my-serenity-chords.htm
Привет, Гость.
Предлагаем пройти революционный курс по гитаре.
Подарок от PrimaNota.Ru, забирай!