PrimaNota.ru - самый крупный в мире бесплатный архив песенных текстов, аккордов, табулатур и нот


Entwine - Insomniac - текст песни, таба, видео

Регистрация Запомнить меня
Войти через:  Facebook Google Twitter Vk Yandex Mail.ru

Entwine - Insomniac - текст песни, таба, видео

Печатать
Просмотров: 58
intro                                                  
      E      E   E  E   E  E  E  E  E  E  E  E  E  E  E  E   
D||---------------------------------------------------------|
A||---------------------------------------------------------|
F||*--------------------------------------------------------|
C||*--------------------------------------------------------|
G||---------------------------------------------------------|
C||---0-----12--10--0--10--8--0--8--7--0--7--5--0--5--3--5--|


  E   E   E  E   E  E  E  E  E  E  E  E  E  E  Q        
------------------------------------------------------||
------------------------------------------------------||
-----------------------------------------------------*||
-----------------------------------------------------*||
------------------------------------------------------||
--0--12--10--0--10--8--0--8--7--0--7--5--0--5--3~-----||


   verse                                                  
   PM     PM  PM PM  PM PM PM PM PM PM PM PM PM PM PM PM  
   E      E   E  E   E  E  E  E  E  E  E  E  E  E  E  E   
---------------------------------------------------------|
---------------------------------------------------------|
*--------------------------------------------------------|
*--------------------------------------------------------|
---------------------------------------------------------|
---0-----12--10--0--10--8--0--8--7--0--7--5--0--5--3--5--|


  PM  PM  PM PM  PM PM PM PM PM PM PM PM PM PM PM        
  E   E   E  E   E  E  E  E  E  E  E  E  E  E  Q       4x
-------------------------------------------------------||
-------------------------------------------------------||
------------------------------------------------------*||
------------------------------------------------------*||
-------------------------------------------------------||
--0--12--10--0--10--8--0--8--7--0--7--5--0--5--3b~-----||


   chours                                                                       
   Q      H.           H.           Q       H.           H.           H         
-----------------------------------------|-------------------------------------|
-----------------------------------------|-------------------------------------|
*----------------------------------------|--5----------------------------------|
*--0------L------------3------------L----|--5------------5------------L--------|
---0------L------------3------------L----|--3------------5------------L--------|
---0------L------------3------------L----|---------------5------------L--------|


  Q    H.           H         H          
----------------------------------------|
----------------------------------------|
----------------------------------------|
--0----L------------3-------------------|
--0----L------------3--------12\--------|
--0----L------------3--------12\--------|


               PM PM PM PM                
  H.           E  E  E  E  H        E     
----------------------------------------||
----------------------------------------||
--5------------------------------------*||
--5------------x--x--x--x--L--------L--*||
--3------------x--x--x--x--L--------L---||
---------------x--x--x--x--L--------L---||


   E   E   E  E   E  E  E  E  E  E  E  E  E  E  E  E   
------------------------------------------------------|
------------------------------------------------------|
*-----------------------------------------------------|
*-----------------------------------------------------|
------------------------------------------------------|
---0--12--10--0--10--8--0--8--7--0--7--5--0--5--3--5--|


  E   E   E  E   E  E  E  E  E  E  E  E  E  E  Q        
------------------------------------------------------||
------------------------------------------------------||
-----------------------------------------------------*||
-----------------------------------------------------*||
------------------------------------------------------||
--0--12--10--0--10--8--0--8--7--0--7--5--0--5--3~-----||


   PM  PM  PM PM  PM PM PM PM PM PM PM PM PM PM PM PM  
   E   E   E  E   E  E  E  E  E  E  E  E  E  E  E  E   
------------------------------------------------------|
------------------------------------------------------|
*-----------------------------------------------------|
*-----------------------------------------------------|
------------------------------------------------------|
---0--12--10--0--10--8--0--8--7--0--7--5--0--5--3--5--|


  PM  PM  PM PM  PM PM PM PM PM PM PM PM PM PM PM       
  E   E   E  E   E  E  E  E  E  E  E  E  E  E  Q      4x
------------------------------------------------------||
------------------------------------------------------||
-----------------------------------------------------*||
-----------------------------------------------------*||
------------------------------------------------------||
--0--12--10--0--10--8--0--8--7--0--7--5--0--5--3~-----||


  chours                                                                       
  Q      H.           H.           Q       H.           H.           H         
----------------------------------------|-------------------------------------|
----------------------------------------|-------------------------------------|
----------------------------------------|--5----------------------------------|
--0------L------------3------------L----|--5------------5------------L--------|
--0------L------------3------------L----|--3------------5------------L--------|
--0------L------------3------------L----|---------------5------------L--------|


  Q    H.           H         H          
----------------------------------------|
----------------------------------------|
----------------------------------------|
--0----L------------3-------------------|
--0----L------------3--------12\--------|
--0----L------------3--------12\--------|


               PM PM PM PM                                                     
  H.           E  E  E  E  H        E     Q    H.           H.           Q     
---------------------------------------|--------------------------------------|
---------------------------------------|--------------------------------------|
--5------------------------------------|--------------------------------------|
--5------------x--x--x--x--L--------L--|--0----L------------3------------L----|
--3------------x--x--x--x--L--------L--|--0----L------------3------------L----|
---------------x--x--x--x--L--------L--|--0----L------------3------------L----|


  H.           H.           Q     
---------------------------------|
---------------------------------|
--5------------------------------|
--5------------5------------L----|
--3------------5------------L----|
---------------5------------L----|


    breakdown                                                               
    E         E  E  E  E  E  E  E  E  E  E  E    E  E  E  E   4x            
|-------------------------------------------------------------||-----|-----|
|-------------------------------------------------------------||-----|-----|
|*-----------------------------------------------------------*||-----|-----|
|*--0---------0-----0--0-----0--0-----0--0-----5g6--3--2--5--*||-----|-----|
|---0---------0-----0--0-----0--0-----0--0-----5g6--3--2--5---||-----|-----|
|---0---------0-----0--0-----0--0-----0--0-----5g6--3--2--5---||-----|-----|


                    PM PM PM PM PM PM PM PM PM PM PM PM PM PM  
                    E  E  E  E  E  E  E  E  E  E  E  E  E  E   
-----|-----|-----|--------------------------------------------|
-----|-----|-----|--------------------------------------------|
-----|-----|-----|--------------------------------------------|
-----|-----|-----|--------------------------------------------|
-----|-----|-----|--0--0--0--0--0--0--0--0--0--0--0--0--0--0--|
-----|-----|-----|--0--0--0--0--0--0--0--0--0--0--0--0--0--0--|


  PM PM PM PM PM PM PM PM PM PM PM PM PM PM  
  E  E  E  E  E  E  E  E  E  E  E  E  E  E   
--------------------------------------------|
--------------------------------------------|
--------------------------------------------|
--------------------------------------------|
--0--0--0--0--0--0--0--0--0--0--0--0--0--0--|
--0--0--0--0--0--0--0--0--0--0--0--0--0--0--|


  PM PM PM PM PM PM PM PM PM PM PM PM PM PM  
  E  E  E  E  E  E  E  E  E  E  E  E  E  E   
--------------------------------------------|
--------------------------------------------|
--------------------------------------------|
--------------------------------------------|
--0--0--0--0--0--0--0--0--0--0--0--0--0--0--|
--0--0--0--0--0--0--0--0--0--0--0--0--0--0--|


        pre-solo                                 
  Q     E        E  E   E  E  E  E  H        E   
------------------------------------------------|
------------------------------------------------|
------------------------------------------------|
--0----12-------10--0--10--8--0--8--7--------L--|
--0----12-------10--0--10--8--0--8--7--------L--|
--0----12-------10--0--10--8--0--8--7--------L--|


  solo                                                  
  E     E   E  E   E  E  E  E  E  E  E  E  E  E  E  E   
-------------------------------------------------------|
-------------------------------------------------------|
-------------------------------------------------------|
-------------------------------------------------------|
-------------------------------------------------------|
--0----12--10--0--10--8--0--8--7--0--7--5--0--5--3--5--|


  E   E   E  E   E  E  E  E  E  E  E  E  E  E  Q      
-----------------------------------------------------|
-----------------------------------------------------|
-----------------------------------------------------|
-----------------------------------------------------|
-----------------------------------------------------|
--0--12--10--0--10--8--0--8--7--0--7--5--0--5--3~----|


  E   E   E  E   E  E  E  E  E  E  E  E  E  E  E  E   
-----------------------------------------------------|
-----------------------------------------------------|
-----------------------------------------------------|
-----------------------------------------------------|
-----------------------------------------------------|
--0--12--10--0--10--8--0--8--7--0--7--5--0--5--3--5--|


  E   E   E  E   E  E  E  E  E  E  E  E  E  E  Q      
-----------------------------------------------------|
-----------------------------------------------------|
-----------------------------------------------------|
-----------------------------------------------------|
-----------------------------------------------------|
--0--12--10--0--10--8--0--8--7--0--7--5--0--5--3~----|


    chours                                 
    Q      H.           H.           Q     
|-----------------------------------------|
|-----------------------------------------|
|*----------------------------------------|
|*--0------L------------3------------L----|
|---0------L------------3------------L----|
|---0------L------------3------------L----|


  H.           H.           H           Q    H.           H         H          
-------------------------------------|----------------------------------------|
-------------------------------------|----------------------------------------|
--5----------------------------------|----------------------------------------|
--5------------5------------L--------|--0----L------------3-------------------|
--3------------5------------L--------|--0----L------------3--------12\--------|
---------------5------------L--------|--0----L------------3--------12\--------|


               PM PM PM PM                                                     
  H.           E  E  E  E  H        E     Q    H.           H.           Q     
---------------------------------------|--------------------------------------|
---------------------------------------|--------------------------------------|
--5------------------------------------|--------------------------------------|
--5------------x--x--x--x--L--------L--|--0----L------------3------------L----|
--3------------x--x--x--x--L--------L--|--0----L------------3------------L----|
---------------x--x--x--x--L--------L--|--0----L------------3------------L----|


  H.           H.           Q       
----------------------------------||
----------------------------------||
--5------------------------------*||
--5------------5------------L----*||
--3------------5------------L-----||
---------------5------------L-----||


  E   E   E  E   E  E  E  E  E  E  E  E  E  E  E  E   
-----------------------------------------------------|
-----------------------------------------------------|
-----------------------------------------------------|
-----------------------------------------------------|
-----------------------------------------------------|
--0--12--10--0--10--8--0--8--7--0--7--5--0--5--3--5--|


  E   E   E  E   E  E  E  E  E  E  E  E  E  E  Q      
-----------------------------------------------------|
-----------------------------------------------------|
-----------------------------------------------------|
-----------------------------------------------------|
-----------------------------------------------------|
--0--12--10--0--10--8--0--8--7--0--7--5--0--5--3~----|


  E   E   E  E   E  E  E  E  E  E  E  E  E  E  E  E   
-----------------------------------------------------|
-----------------------------------------------------|
-----------------------------------------------------|
-----------------------------------------------------|
-----------------------------------------------------|
--0--12--10--0--10--8--0--8--7--0--7--5--0--5--3--5--|


                                         PM PM       
  E   E   E  E   E  E  E  E  E  E  E  E  E  E  Q     
----------------------------------------------------|
----------------------------------------------------|
----------------------------------------------------|
-----------------------------------------0--0--0----|
-----------------------------------------0--0--0----|
--0--12--10--0--10--8--0--8--7--0--7--5--0--0--0----|


  W                W                  
------------------------------------||
------------------------------------||
------------------------------------||
--L----------------L----------------||
--L----------------L----------------||
--L----------------L----------------||




Duration Legend
---------------
W - whole
H - half
Q - quarter
E - 8th
S - 16th
T - 32nd
X - 64th
. - note dotted
|-n-|  - n-tuplets


Tablature Legend
----------------
L - tied note
x - dead note
g - grace note
(n) - ghost note
> - accentuded note
NH - natural harmonic
AH - artificial harmonic
TH - tapped harmonic
SH - semi harmonic
PH - pitch harmonic
h - hammer on
p - pull off
b - bend
br - bendRelease
pb - preBend
pbr - preBendRelease
brb - bendReleaseBend
\n/ - tremolo bar dip
\n - tremolo bar dive
-/n - tremolo bar Release up
/n\ - tremolo bar inverted dip
/n - tremolo bar return
-\n - tremolo bar Release down
S - shift slide
s - legato slide
/ -  slide into from below or out of upwards
\ -  slide into from above or out of downwards
~ - vibrato
W - wide vibrato
tr - trill
TP - tremolo picking
T - tapping
S - slap
P - pop
< - fade in
^ - brush up
v - brush down
Добавлено: 07.11.2015
Другие материалы по этой песне:

Страница создана 17.04.2012
http://primanota.ru/entwine/insomniac-chords.htm
Привет, Гость.
Предлагаем пройти революционный курс по гитаре.
Подарок от PrimaNota.Ru, забирай!