PrimaNota.ru - самый крупный в мире бесплатный архив песенных текстов, аккордов, табулатур и нот


Entwine - In The Frame Of Wilderness - текст песни, таба, бас-таба, видео

Регистрация Запомнить меня
Войти через:  Facebook Google Twitter Vk Yandex Mail.ru

Entwine - In The Frame Of Wilderness - текст песни, таба, бас-таба, видео

Печатать
Просмотров: 271
Уроки эстрадного вокала в Санкт-Петербурге
-------------------------------------------------------------------------------
                     IN THE FRAME OF WILDERNESS - Entwine
-------------------------------------------------------------------------------

Tuning: Standard


This is one of my all-time favorite songs, perhaps the best Entwine has done.



Lead melody:
e|------------------------------------------------------------------------|
B|------------------------------------------------------------------------|
G|---9----9-10----10-------10-12~----9-12~----9-10~----10-12----12---10---|
D|-------------------12---------------------------------------------------|
A|------------------------------------------------------------------------|
E|------------------------------------------------------------------------|



Rhytm guitar during lead:
e|------------------|
B|------------------|
G|-----7-----10-----|
D|-----7-----10-----|
A|-----5------8-----|
E|------------------|
   (x 12) (x 12)



Verse, distorted guitar:
("The sky dressed in red by midsummer sunset...")
("The dusk descends and sadly entwines the shades...")
("The passion reigns as the grey haze caresses thee...")
e|---------------------------|
B|---------------------------|
G|---------------------------|
D|---------------------------|
A|---5~----------0~-----3~---|
E|---------------------------| (x 2)



Verse, clean guitar (repeated 2 times):
("The sky dressed in red by midsummer sunset...")
("The dusk descends and sadly entwines the shades...")
("The passion reigns as the grey haze caresses thee...")
e|--------------------------|
B|--------------------8-----|
G|---7-9-10-9-----7-----9---|
D|--------------------------|
A|--------------------------|
E|--------------------------| (x 2)


e|--------------------------------|
B|--------------------------------|
G|--------------------10-9--------|
D|---7---10-9-----7----------10---|
A|--------------------------------|
E|--------------------------------| (x 2)



Pre-chorus, distorted guitar:
("Enchantress, my queen of nightfall...")
("Over the forest mist brings desires...")
("In the frame of wilderness, so serene...")
e|-----------------------------|
B|-----------------------------|
G|-----------------------------|
D|-----------------------------|
A|---2~-----0~-----2~-----7~---|
E|-----------------------------|



Chorus:
("For thee enchantress all the angels weep...")
e|-----------------------------|
B|-----------------------------|
G|-----------7-----------------|
D|-----3-----7-----7-----5-----|
A|-----3-----5-----7-----5-----|
E|-----1-----------5-----3-----| (x 3)
   (x 12)(x 12)(x 9)  (x 3)


e|-----------------------|
B|-----------------------|
G|-----------7-----------|
D|-----3-----7-----7-----|
A|-----3-----5-----7-----|
E|-----1-----------5-----|
   (x 12)(x 12)(x 12)



Violin melody:
e|---------------------13---12--------10-----------|----|
B|-----------10---13-------------13--------10~-----|----|
G|---10~-------------------------------------------|-12-|
D|-------------------------------------------------|----|
A|-------------------------------------------------|----|
E|-------------------------------------------------|----|
                        (x 2)                       (x 1)



Bridge to final chorus, rhytm guitar:
e|---------------------------|
B|---------------------------|
G|---------------------------|
D|---10-----2-----5-----12---|
A|---10-----2-----5-----12---|
E|----8-----0-----3-----10---| (x 2)


e|---------------------------------------------------------|
B|---------------------------------------------------------|
G|---------------------------------------------------------|
D|---3-----2---10---12---------------------3-----5--2--7---|
A|---3-----2---10---12---------------------3-----5--2--7---|
E|---1-----0----8---10---------------------1-----3--0--5---|



************************************

| ~   vibrato

************************************
Добавлено: 23.02.2012
Другие материалы по этой песне:
  • Аккорды и текст

Страница создана 23.02.2012
http://primanota.ru/entwine/in-the-frame-of-wilderness-chords.htm
Привет, Гость.
Предлагаем пройти революционный курс по гитаре.
Подарок от PrimaNota.Ru, забирай!