PrimaNota.ru - самый крупный в мире бесплатный архив песенных текстов, аккордов, табулатур и нот


Entwine - Fatal Design - текст песни, таба, видео

Регистрация Запомнить меня
Войти через:  Facebook Google Twitter Vk Yandex Mail.ru

Entwine - Fatal Design - текст песни, таба, видео

Печатать
Просмотров: 94
               E  E  E  E  E  E  E  E     E  E  E  E  E  E  E  E   
E||-------||---------------------------|--------------------------|
B||-------||---------------------------|--------------------------|
G||-------||*--------------------------|--------------------------|
D||-------||*--5--5--5--5--5--5--5--5--|--5--5--5--5--5--5--5--5--|
A||-------||---5--5--5--5--5--5--5--5--|--5--5--5--5--5--5--5--5--|
D||-------||---5--5--5--5--5--5--5--5--|--5--5--5--5--5--5--5--5--|


  E  E  E  E  E  E  E  E     E  E  E  E  E  E  E  E     
--------------------------|---------------------------||
--------------------------|---------------------------||
--------------------------|--5--5--5--7--7--7--8--8--*||
--1--1--1--1--1--1--1--1--|--x--x--x--x--x--x--x--x--*||
--1--1--1--1--1--1--1--1--|--3--3--3--5--5--5--6--6---||
--1--1--1--1--1--1--1--1--|---------------------------||


   E  E  E  E  E  E  E  E       E  E  E  E  E  E  E  E   
----------------------------||--------------------------|
----------------------------||--------------------------|
*--------------------------*||--------------------------|
*--5--5--x--5--5--5--x--5--*||--1--1--x--1--1--1--x--1--|
---5--5--x--5--5--5--x--5---||--1--1--x--1--1--1--x--1--|
---5--5--x--5--5--5--x--5---||--1--1--x--1--1--1--x--1--|


  E  E  E  E  Q    Q         E  E  E  E  E  E  E  E     
------------------------||----------------------------||
------------------------||----------------------------||
------------------------||*--------------------------*||
--1--1--x--1--1----3----||*--5--5--x--5--5--5--x--5--*||
--1--1--x--1--1----3----||---5--5--x--5--5--5--x--5---||
--1--1--x--1--1----3----||---5--5--x--5--5--5--x--5---||


  E  E  E  E  E  E  E  E     E  E  E  E  Q    Q     
--------------------------|------------------------|
--------------------------|------------------------|
--------------------------|------------------------|
--1--1--x--1--1--1--x--1--|--1--1--x--1--1----3----|
--1--1--x--1--1--1--x--1--|--1--1--x--1--1----3----|
--1--1--x--1--1--1--x--1--|--1--1--x--1--1----3----|


    PM PM    PM PM PM    PM      PM PM    PM PM PM    PM  
    E  E  E  E  E  E  E  E       E  E  E  E  E  E  E  E   
|----------------------------||--------------------------|
|----------------------------||--------------------------|
|*--------------------------*||--------------------------|
|*--5--5--x--5--5--5--x--5--*||--1--1--x--1--1--1--x--1--|
|---5--5--x--5--5--5--x--5---||--1--1--x--1--1--1--x--1--|
|---5--5--x--5--5--5--x--5---||--1--1--x--1--1--1--x--1--|


  PM PM                       PM PM    PM PM PM    PM    
  E  E  E  E  E  E  Q         E  E  E  E  E  E  E  E     
-------------------------||----------------------------||
-------------------------||----------------------------||
-------------------------||*--------------------------*||
--1--1--x--1--1--1--3----||*--5--5--x--5--5--5--x--5--*||
--1--1--x--1--1--1--3----||---5--5--x--5--5--5--x--5---||
--1--1--x--1--1--1--3----||---5--5--x--5--5--5--x--5---||


  PM PM    PM PM PM    PM    PM PM                   
  E  E  E  E  E  E  E  E     E  E  E  E  E  E  Q     
--------------------------|-------------------------|
--------------------------|-------------------------|
--------------------------|-------------------------|
--1--1--x--1--1--1--x--1--|--1--1--x--1--1--1--3----|
--1--1--x--1--1--1--x--1--|--1--1--x--1--1--1--3----|
--1--1--x--1--1--1--x--1--|--1--1--x--1--1--1--3----|


    PM PM    PM PM PM    PM      PM PM    PM PM PM    PM  
    E  E  E  E  E  E  E  E       E  E  E  E  E  E  E  E   
|----------------------------||--------------------------|
|----------------------------||--------------------------|
|*--------------------------*||--------------------------|
|*--5--5--x--5--5--5--x--5--*||--1--1--x--1--1--1--x--1--|
|---5--5--x--5--5--5--x--5---||--1--1--x--1--1--1--x--1--|
|---5--5--x--5--5--5--x--5---||--1--1--x--1--1--1--x--1--|


  PM PM                       PM PM    PM PM PM    PM    
  E  E  E  E  E  E  Q         E  E  E  E  E  E  E  E     
-------------------------||----------------------------||
-------------------------||----------------------------||
-------------------------||*--------------------------*||
--1--1--x--1--1--1--3----||*--5--5--x--5--5--5--x--5--*||
--1--1--x--1--1--1--3----||---5--5--x--5--5--5--x--5---||
--1--1--x--1--1--1--3----||---5--5--x--5--5--5--x--5---||


  PM PM    PM PM                                      
  E  E  E  E  E  E  E  E     E  E  E  E  E  E  E  E   
--------------------------|--------------------------|
--------------------------|--------------------------|
--------------------------|--5--5--5--5--5--5--5--5--|
--1--1--x--1--1--x--1--1--|--5--5--5--5--5--5--5--5--|
--1--1--x--1--1--x--1--1--|--3--3--3--3--3--3--3--3--|
--1--1--x--1--1--x--1--1--|--------------------------|


    E  E  E  E  E  E  E  E     E  E  E  E  E  E  E  E   
|---------------------------|--------------------------|
|---------------------------|--------------------------|
|*--------------------------|--------------------------|
|*--5--5--5--5--5--5--5--5--|--5--5--5--5--5--5--5--5--|
|---5--5--5--5--5--5--5--5--|--5--5--5--5--5--5--5--5--|
|---5--5--5--5--5--5--5--5--|--5--5--5--5--5--5--5--5--|


  E  E  E  E  E  E  E  E     E  E  E  E  E  E  E  E   4x
--------------------------|---------------------------||
--------------------------|---------------------------||
--------------------------|--5--5--5--7--7--7--8--8--*||
--1--1--1--1--1--1--1--1--|--x--x--x--x--x--x--x--x--*||
--1--1--1--1--1--1--1--1--|--3--3--3--5--5--5--6--6---||
--1--1--1--1--1--1--1--1--|---------------------------||


                     W            PM PM PM PM PM PM W         
   E  E  E  E  E  E  E   E   3x   E  E  E  E  E  E  E   E   8x
-----------------------------||-----------------------------||
-----------------------------||-----------------------------||
*---------------------------*||*---------------------------*||
*--0--3--0--5--0--3--5~--L--*||*---------------------------*||
---0--3--0--5--0--3--5~--L---||---0--3--0--5--0--3--5~--L---||
---0--3--0--5--0--3--5~--L---||---0--3--0--5--0--3--5~--L---||


  PM PM PM PM PM PM                                                    
  E  E  E  E  E  E  E  E     E  E  H        Q       H        H         
--------------------------|----------------------|--------------------|
--------------------------|----------------------|--------------------|
--------------------5--5--|--5--5----------------|--------------------|
--0--3--0--1--1--1--x--x--|--x--x--5--------L----|--L--------L--------|
--0--3--0--1--1--1--3--3--|--3--3--5--------L----|--L--------L--------|
--0--3--0--1--1--1--------|--------5--------L----|--L--------L--------|


  W                   W                   W                   W                 
-------------------|-------------------|-------------------|-------------------|
-------------------|-------------------|-------------------|-------------------|
-------------------|--5----------------|-------------------|-------------------|
--1----------------|--5----------------|--5----------------|--L----------------|
--1----------------|--3----------------|--5----------------|--L----------------|
--1----------------|-------------------|--5----------------|--L----------------|


  W                   E  E  E  E  E  Q.          E  E  E  E  E  E  E  E   
-------------------|------------------------||---------------------------|
-------------------|------------------------||---------------------------|
-------------------|--5--5--5--5--5--L------||*--------------------------|
--1----------------|--x--x--x--x--x---------||*--5--5--5--5--5--5--5--5--|
--1----------------|--3--3--3--3--3--L------||---5--5--5--5--5--5--5--5--|
--1----------------|------------------------||---5--5--5--5--5--5--5--5--|


  E  E  E  E  E  E  E  E     E  E  E  E  E  E  E  E   
--------------------------|--------------------------|
--------------------------|--------------------------|
--------------------------|--------------------------|
--5--5--5--5--5--5--5--5--|--1--1--1--1--1--1--1--1--|
--5--5--5--5--5--5--5--5--|--1--1--1--1--1--1--1--1--|
--5--5--5--5--5--5--5--5--|--1--1--1--1--1--1--1--1--|


                                PM PM    PM PM PM   NH   NH   W          
  E  E  E  E  E  E  E  E   4x   E  E  E  E  E  E    E    E    S  S E     
---------------------------||------------------------------------------||
---------------------------||------------------------------------------||
--5--5--5--7--7--7--8--8--*||*----------------------------------------*||
--x--x--x--x--x--x--x--x--*||*--0--0-----0--0--0----------------------*||
--3--3--3--5--5--5--6--6---||---0--0-----0--0--0----------------------*||
---------------------------||---0--0-----0--0--0-----------------------||


  E  E  E  E  E  E  Q         E  E  E  E  E  E  E  E   
-------------------------||---------------------------|
-------------------------||---------------------------|
-------------------------||*--------------------------|
--1--1-----1--1-----0----||*--5--5--5--5--5--5--5--5--|
--1--1-----1--1-----0----||---5--5--5--5--5--5--5--5--|
--1--1-----1--1-----0----||---5--5--5--5--5--5--5--5--|


  E  E  E  E  E  E  E  E     E  E  E  E  E  E  E  E   
--------------------------|--------------------------|
--------------------------|--------------------------|
--------------------------|--------------------------|
--5--5--5--5--5--5--5--5--|--1--1--1--1--1--1--1--1--|
--5--5--5--5--5--5--5--5--|--1--1--1--1--1--1--1--1--|
--5--5--5--5--5--5--5--5--|--1--1--1--1--1--1--1--1--|


  E  E  E  E  E  E  E  E   4x   E  E  E  E  E  E  E  E   
---------------------------||---------------------------|
---------------------------||---------------------------|
--5--5--5--7--7--7--8--8--*||*--------------------------|
--x--x--x--x--x--x--x--x--*||*--5--5--5--5--5--5--5--5--|
--3--3--3--5--5--5--6--6---||---5--5--5--5--5--5--5--5--|
---------------------------||---5--5--5--5--5--5--5--5--|


  E  E  E  E  E  E  E  E     E  E  E  E  E  E  E  E   
--------------------------|--------------------------|
--------------------------|--------------------------|
--------------------------|--------------------------|
--5--5--5--5--5--5--5--5--|--1--1--1--1--1--1--1--1--|
--5--5--5--5--5--5--5--5--|--1--1--1--1--1--1--1--1--|
--5--5--5--5--5--5--5--5--|--1--1--1--1--1--1--1--1--|


                                                  W         
  E  E  E  E  E  E  E  E   4x   E  E  E  E  E  E  E   E     
---------------------------||-----------------------------||
---------------------------||-----------------------------||
--5--5--5--7--7--7--8--8--*||*---------------------------*||
--x--x--x--x--x--x--x--x--*||*--0--3--0--5--0--3--5~--L--*||
--3--3--3--5--5--5--6--6---||---0--3--0--5--0--3--5~--L---||
---------------------------||---0--3--0--5--0--3--5~--L---||


                    W                               
  E  E  E  E  E  E  E   E     E   H        Q.       
---------------------------|----------------------||
---------------------------|----------------------||
---------------------------|----------------------||
--0--3--0--3--5--3--5~--3--|--5s--x--------L------||
--0--3--0--3--5--3--5~--3--|--5s--x--------L------||
--0--3--0--3--5--3--5~--3--|--5s--x--------L------||




Duration Legend
---------------
W - whole
H - half
Q - quarter
E - 8th
S - 16th
T - 32nd
X - 64th
. - note dotted
|-n-|  - n-tuplets


Tablature Legend
----------------
L - tied note
x - dead note
g - grace note
(n) - ghost note
> - accentuded note
NH - natural harmonic
AH - artificial harmonic
TH - tapped harmonic
SH - semi harmonic
PH - pitch harmonic
h - hammer on
p - pull off
b - bend
br - bendRelease
pb - preBend
pbr - preBendRelease
brb - bendReleaseBend
\n/ - tremolo bar dip
\n - tremolo bar dive
-/n - tremolo bar Release up
/n\ - tremolo bar inverted dip
/n - tremolo bar return
-\n - tremolo bar Release down
S - shift slide
s - legato slide
/ -  slide into from below or out of upwards
\ -  slide into from above or out of downwards
~ - vibrato
W - wide vibrato
tr - trill
TP - tremolo picking
T - tapping
S - slap
P - pop
< - fade in
^ - brush up
v - brush down
Добавлено: 07.11.2015
Другие материалы по этой песне:

Страница создана 13.07.2012
http://primanota.ru/entwine/fatal-design-chords.htm
Привет, Гость.
Предлагаем пройти революционный курс по гитаре.
Подарок от PrimaNota.Ru, забирай!