PrimaNota.ru - самый крупный в мире бесплатный архив песенных текстов, аккордов, табулатур и нот


Entwine - The Evil Lives In The Shadows - таба, видео

Регистрация Запомнить меня
Войти через:  Facebook Google Twitter Vk Yandex Mail.ru

Entwine - The Evil Lives In The Shadows - таба, видео

Печатать
Просмотров: 46
intro                                                                     
     
D||---------------------------------------------------------------------------|
A||---------------------------------------------------------------------------|
F||---------------------------------------------------------------------------|
C||---------------------------------------------------------------------------|
G||--------------12---------------10---------------12-------13-12-------------|
C||--0-----12-15----14-12-0-10-12----12-10-0-12-15----14-12-------15-14-12-10-|


 
-----------------------------------------------------------------------|
-----------------------------------------------------------------------|
-----------------------------------------------------------------------|
-----------------------------------------------------------------------|
----------12---------------10---------------12-------13-12-------------|
--0-12-15----14-12-0-10-12----12-10-0-12-15----14-12-------15-14-12-10-|
   
----------------------------------|
----------------------------------|
----------------------------------|
--7-------7-7---7-5------5--------|
--7-------7-7---7-5------3--------|
--7-------7-7---7-5------3--------|


chours 

-------------------------------------|
-------------------------------------|
-------------------------------------|
--0------0---0---0---0---0---0---0---|
--0------0---0---0---0---0---0---0---|
--0------0---0---0---0---0---0---0---|


    
----------------------------------||
----------------------------------||
----------------------------------||
--2---2---2---2---3---3---3---3---||
--2---2---2---2---3---3---3---3---||
--2---2---2---2---3---3---3---3---||
Добавлено: 07.05.2016
Другие материалы по этой песне:
  • Аккорды и текст

Страница создана 07.05.2016
http://primanota.ru/entwine/evil-lives-in-shadows-chords.htm
Привет, Гость.
Предлагаем пройти революционный курс по гитаре.
Подарок от PrimaNota.Ru, забирай!