PrimaNota.ru - самый крупный в мире бесплатный архив песенных текстов, аккордов, табулатур и нот


Entwine - Enjoy The Silence - текст песни, таба, видео

Регистрация Запомнить меня
Войти через:  Facebook Google Twitter Vk Yandex Mail.ru

Entwine - Enjoy The Silence - текст песни, таба, видео

Печатать
Просмотров: 264
Авторы музыки: Martin L. Gore
Авторы текста: Martin L. Gore
Enjoy the silence(from band depeche mode) cover by entwine(album -The Treasures Within Hearts)

tuning Drop C(DAFCGC), this original tuning is Drop G#(depeche mode)

D----------------------------------------|
A----------------------------------------|
F----------------------------------------|
C----------------------------------------|
G----------------------------------------|
C----------------------------------------|

guitar 1 (intro)
D---------------------------------------|
A---------------------------------------|
F---------------------------------------|
C-(drums)----0-----3-----0--xxx--3------|repeat 3X this part
G------------0-----3-----0--xxx--3------|
C------------0-----3-----0--xxx--3------|

guitar 2 (intro/solo)
D----------------------------------------------------|
A---3----5B7RB5-3---1-----3---5B7RB5---1-------------|
F--------------------------------------------3----2--|
C-3----3----------3-----3---3--------3-----3----3----|
G----------------------------------------------------|
C----------------------------------------------------|
PM                .     .            .     .    .

D-----------|
A---3----1--|
F-----------|
C-3----3----|   REPEAT(guitar2) this solo 2X after of the rit
G-----------|
C-----------|
PM.    .

guitar 1 (Verse 1)

D--------------------------------------------------------------|
A--------------------------------------------------------------|
F--------------------------------------------------------------| repeat this part 2X
C-0-0-0-0-0-0-0-0-3-3-3-3-3-3-3-3-3-8-8-8-8-8-8-x-8-8-8-8-8----|
G-0-0-0-0-0-0-0-0-3-3-3-3-3-3-3-3-3-8-8-8-8-8-8-x-8-8-8-8-8----|
C-0-0-0-0-0-0-0-0-3-3-3-3-3-3-3-3-3-8-8-8-8-8-8-x-8-8-8-8-8----|
PM  . . . . . . .   . . . . . . . .   . . . .       . . .

D---------|
A---------|
F---------|
C-x/x-----|
G-x/x-----|    picking slide effect
C-x/x-----|

(guitar 1/guitar 2)  [chours]
D--------------------------------------------|
A--------------------------------------------|
F---------2----------------------------5-----|
C-5---8---0--0-0-0-0-0-0-3-3-3-3-3-3-3-3-----| 2x this part
G-5---8---0--0-0-0-0-0-0-3-3-3-3-3-3-3-3-----|
C-5---8---0--0-0-0-0-0-0-3-3-3-3-3-3-3-3-----|


*________> intro guitar 1 rit and guitar 2 solo/intro


*________> verse 1 with guitar 1


*________> chours



guitar 2 (intro/solo)
D----------------------------------------------------|
A---3----5B7RB5-3---1-----3---5B7RB5---1-------------|
F--------------------------------------------3----2--|
C-3----3----------3-----3---3--------3-----3----3----|
G----------------------------------------------------|
C----------------------------------------------------|
PM                .     .            .     .    .

D-----------|
A---3----1--|
F-----------|
C-3----3----|   REPEAT(guitar2) 4X
G-----------|
C-----------|

guitar 1
D----------------------------------------------------|
A----------------------------------------------------|
F----------------------------------------------------|
C------------------------------------3333------------|
G------------------------------------3333------------|  first time
C------------------------------------3333------------|
PM                                   ....

D-------------------------------|
A-------------------------------|
F-------------------------------|
C----0-----3-----0--xxx--3------|repeat 3X this part
G----0-----3-----0--xxx--3------|
C----0-----3-----0--xxx--3------|


*________> chours(guitar 1 and 2)



riff final (guitar 1 and 2)


D-----------------------------------------------------|
A-----------------------------------------------------|
F-----------------------------------------------------|
C-5-x-5-x-5-x--8-x-8-x-8-x--0-x-0-x-0-x--3-x-3-x-3-x--|
G-5-x-5-x-5-x--8-x-8-x-8-x--0-x-0-x-0-x--3-x-3-x-3-x--|
C-5-x-5-x-5-x--8-x-8-x-8-x--0-x-0-x-0-x--3-x-3-x-3-x--|

D-----------------------------------------------------------|
A-----------------------------------------------------------|
F-----------------------------------------------------------|
C-5-x-5-x-5-x--8-x-8-x-8-x--0-x-0-x-0-x--3--3--3--3--3--3---|
G-5-x-5-x-5-x--8-x-8-x-8-x--0-x-0-x-0-x--3--3--3--3--3--3---|
C-5-x-5-x-5-x--8-x-8-x-8-x--0-x-0-x-0-x--3--3--3--3--3--3---|
PM                                          .  .  .  .  .


legenda (keys)

X= dead note
PM= palm-mute
.= use palm-mute
5B7RB5= bend/release bend
picking slide effect= slide with its (reed-"pick") on the strings, starting from the pickups
Добавлено: 30.09.2013
Другие материалы по этой песне:
  • Аккорды и текст

Страница создана 18.05.2012
http://primanota.ru/entwine/enjoy-the-silence-chords.htm
Привет, Гость.
Предлагаем пройти революционный курс по гитаре.
Подарок от PrimaNota.Ru, забирай!