PrimaNota.ru - самый крупный в мире бесплатный архив песенных текстов, аккордов, табулатур и нот


Entwine - Chameleon Halo - текст песни, таба, видео

Регистрация Запомнить меня
Войти через:  Facebook Google Twitter Vk Yandex Mail.ru

Entwine - Chameleon Halo - текст песни, таба, видео

Печатать
Просмотров: 147
 i do not take any credit for this i just converted the gp file into a 
regular tab for people who dont have gp :)                               

Here's a guitar cover if you want to see how i play it..
http://www.youtube.com/watch?v=NwpVodcSA94

                            Chameleon Halo                                  


                                                                         Entwine



              S  S S S  S  S  S  S S S  S S  S  S S S  
D||-------|-------------------------------------------|
A||-------|-------------------------------------------|
F||-------|-------------------------------------------|
C||-------|-------------------------------------------|
G||-------|-------------------------------------------|
C||-------|--10-12-0-0-13-12-10-12-0-0-12-0-10-12-0-0-|


   S  S S S  S  S  S  S S S  S S  S  S  S  S  
---------------------------------------------|
---------------------------------------------|
---------------------------------------------|
---------------------------------------------|
---------------------------------------------|
--10-12-0-0-13-12-10-12-0-0-12-0-10-12-10~-L-|


   S  S S S  S  S  S  S S S  S S  S  S S S  
-------------------------------------------|
-------------------------------------------|
-------------------------------------------|
-------------------------------------------|
-------------------------------------------|
--10-12-0-0-13-12-10-12-0-0-12-0-10-12-0-0-|


   S  S S S  S  S  S  S S S  S S  S  S  S  S  
---------------------------------------------|
---------------------------------------------|
---------------------------------------------|
---------------------------------------------|
---------------------------------------------|
--10-12-0-0-13-12-10-12-0-0-12-0-10-12-10~-L-|


   S  S S S  S  S  S  S S S  S S  S  S S S  
-------------------------------------------|
-------------------------------------------|
-------------------------------------------|
-------------------------------------------|
-------------------------------------------|
--10-12-0-0-13-12-10-12-0-0-12-0-10-12-0-0-|


   S  S S S  S  S  S  S S S  S S  S  S  S  S  
---------------------------------------------|
---------------------------------------------|
---------------------------------------------|
---------------------------------------------|
---------------------------------------------|
--10-12-0-0-13-12-10-12-0-0-12-0-10-12-10~-L-|


   S  S S S  S  S  S  S S S  S S  S  S S S  
-------------------------------------------|
-------------------------------------------|
-------------------------------------------|
-------------------------------------------|
-------------------------------------------|
--10-12-0-0-13-12-10-12-0-0-12-0-10-12-0-0-|


   S  S S S  S  S  S  S S S  S  S  S  S  S  S    E  E  Q    H         
----------------------------------------------|----------------------|
----------------------------------------------|----------------------|
----------------------------------------------|----------------------|
----------------------------------------------|----------------------|
----------------------------12-12-12-12-12-12-|--0--0----------------|
--10-12-0-0-13-12-10-12-0-0-12-12-12-12-12-12-|--0--0----------------|


  E  E  Q    H           E  E  Q    H           E  E  Q    H         
----------------------|----------------------|----------------------|
----------------------|----------------------|----------------------|
----------------------|----------------------|----------------------|
----------------------|----------------------|----------------------|
--0--0----------------|--3--3----------------|--5--5----------------|
--0--0----------------|--3--3----------------|--5--5----------------|


  E  E  Q    H           E  E  Q    H           E  E  Q    H         
----------------------|----------------------|----------------------|
----------------------|----------------------|----------------------|
----------------------|----------------------|----------------------|
----------------------|----------------------|----------------------|
--0--0----------------|--0--0----------------|--3--3----------------|
--0--0----------------|--0--0----------------|--3--3----------------|


  E  E  Q    H           Q    Q     S  E   S E  S S  
----------------------|-----------------------------|
----------------------|-----------------------------|
----------------------|-----------------------------|
----------------------|--8----8----10-10--10-8--8-8-|
--5--5----------------|--8----8-----8--8---8-8--8-8-|
--5--5----------------|--8----8-----8--8---8-8--8-8-|


   Q     Q     S  E   S  E   E     E  S S S S S E  S S S  S S S S  
--------------------------------|---------------------------------|
--------------------------------|---------------------------------|
--------------------------------|---------------------------------|
--10----10----12-12--12-10--10--|---------------------------------|
--10----10----10-10--10-10--10--|--0------------0--0-3-5~-L-0-3-5-|
--10----10----10-10--10-10--10--|--0--0-0-3-2-0-0--0--------------|


  E  S S S S S E  E  S E  E     Q    Q     S  E   S E  S S  
-----------------------------|-----------------------------|
-----------------------------|-----------------------------|
-----------------------------|-----------------------------|
-----------------------------|--8----8----10-10--10-8--8-8-|
--0------------6--5----3--5--|--8----8-----8--8---8-8--8-8-|
--0--0-0-3-2-0-6--5--0-3--5--|--8----8-----8--8---8-8--8-8-|


   Q     Q     S  E   S  E   E     W                   W                 
--------------------------------|-------------------|-------------------|
--------------------------------|-------------------|-------------------|
--------------------------------|--2----------------|--5----------------|
--10----10----12-12--12-10--10--|--0----------------|--3----------------|
--10----10----10-10--10-10--10--|--0----------------|--3----------------|
--10----10----10-10--10-10--10--|--0----------------|--3----------------|


  W                   Q    E  S S S S E  S E.     W                 
-------------------|---------------------------|-------------------|
-------------------|--1----1-------------------|-------------------|
--5----------------|--3----3--x-x-x-x-5--x-5---|--2----------------|
--5----------------|--3----3--x-x-x-x-5--x-5---|--0----------------|
--3----------------|--1----1--x-x-x-x-3--x-3---|--0----------------|
-------------------|---------------------------|--0----------------|


  W                   W                    Q     E   E   E   E   E   E   
-------------------|-------------------|--------------------------------|
-------------------|-------------------|--------------------------------|
--5----------------|--5----------------|--------------------------------|
--3----------------|--5----------------|--10----10--10--10--10--10--10--|
--3----------------|--3----------------|---8-----8---8--10--10--10--10--|
--3----------------|-------------------|---8-----8---8--10--10--10--10--|


   S  S S S  S  S  S  S S S  S S  S  S S S  
-------------------------------------------|
-------------------------------------------|
-------------------------------------------|
-------------------------------------------|
-------------------------------------------|
--10-12-0-0-13-12-10-12-0-0-12-0-10-12-0-0-|


   S  S S S  S  S  S  S S S  S S  S  S  S  S  
---------------------------------------------|
---------------------------------------------|
---------------------------------------------|
---------------------------------------------|
---------------------------------------------|
--10-12-0-0-13-12-10-12-0-0-12-0-10-12-10~-L-|


   S  S S S  S  S  S  S S S  S S  S  S S S  
-------------------------------------------|
-------------------------------------------|
-------------------------------------------|
-------------------------------------------|
-------------------------------------------|
--10-12-0-0-13-12-10-12-0-0-12-0-10-12-0-0-|


   S  S S S  S  S  S  S S S  S  S  S  S  S  S    E  E  Q    H         
----------------------------------------------|----------------------|
----------------------------------------------|----------------------|
----------------------------------------------|----------------------|
----------------------------------------------|----------------------|
----------------------------12-12-12-12-12-12-|--0--0----------------|
--10-12-0-0-13-12-10-12-0-0-12-12-12-12-12-12-|--0--0----------------|


  E  E  Q    H           E  E  Q    H           E  E  Q    H         
----------------------|----------------------|----------------------|
----------------------|----------------------|----------------------|
----------------------|----------------------|----------------------|
----------------------|----------------------|----------------------|
--0--0----------------|--3--3----------------|--5--5----------------|
--0--0----------------|--3--3----------------|--5--5----------------|


  E  E  Q    H           E  E  Q    H           E  E  Q    H         
----------------------|----------------------|----------------------|
----------------------|----------------------|----------------------|
----------------------|----------------------|----------------------|
----------------------|----------------------|----------------------|
--0--0----------------|--0--0----------------|--3--3----------------|
--0--0----------------|--0--0----------------|--3--3----------------|


  E  E  Q    H           Q    Q     S  E   S E  S S  
----------------------|-----------------------------|
----------------------|-----------------------------|
----------------------|-----------------------------|
----------------------|--8----8----10-10--10-8--8-8-|
--5--5----------------|--8----8-----8--8---8-8--8-8-|
--5--5----------------|--8----8-----8--8---8-8--8-8-|


   Q     Q     S  E   S  E   E     E  S S S S S E  S S S  S S S S  
--------------------------------|---------------------------------|
--------------------------------|---------------------------------|
--------------------------------|---------------------------------|
--10----10----12-12--12-10--10--|---------------------------------|
--10----10----10-10--10-10--10--|--0------------0--0-3-5~-L-0-3-5-|
--10----10----10-10--10-10--10--|--0--0-0-3-2-0-0--0--------------|


  E  S S S S S E  E  S E  E     Q    Q     S  E   S E  S S  
-----------------------------|-----------------------------|
-----------------------------|-----------------------------|
-----------------------------|-----------------------------|
-----------------------------|--8----8----10-10--10-8--8-8-|
--0------------6--5----3--5--|--8----8-----8--8---8-8--8-8-|
--0--0-0-3-2-0-6--5--0-3--5--|--8----8-----8--8---8-8--8-8-|


   Q     Q     S  E   S  E   E     W                   W                 
--------------------------------|-------------------|-------------------|
--------------------------------|-------------------|-------------------|
--------------------------------|--2----------------|--5----------------|
--10----10----12-12--12-10--10--|--0----------------|--3----------------|
--10----10----10-10--10-10--10--|--0----------------|--3----------------|
--10----10----10-10--10-10--10--|--0----------------|--3----------------|


  W                   Q    E  S S S S E  S E.     W                 
-------------------|---------------------------|-------------------|
-------------------|--1----1-------------------|-------------------|
--5----------------|--3----3--x-x-x-x-5--x-5---|--2----------------|
--5----------------|--3----3--x-x-x-x-5--x-5---|--0----------------|
--3----------------|--1----1--x-x-x-x-3--x-3---|--0----------------|
-------------------|---------------------------|--0----------------|


  W                   W                   E  E  E  E  E  E  E  E   
-------------------|-------------------|--------------------------|
-------------------|-------------------|--1--1--1--1--------------|
--5----------------|--5----------------|--3--3--3--3--5--5--5--5--|
--3----------------|--5----------------|--3--3--3--3--5--5--5--5--|
--3----------------|--3----------------|--1--1--1--1--3--3--3--3--|
--3----------------|-------------------|--------------------------|


  W                   W                                   
-------------------|-------------------|-----|-----|-----|
--3----------------|--L----------------|-----|-----|-----|
--2----------------|--L----------------|-----|-----|-----|
--0----------------|--L----------------|-----|-----|-----|
--0----------------|--L----------------|-----|-----|-----|
--0----------------|--L----------------|-----|-----|-----|


  H        Q    S S S S    S S S S S S S  S S S S S S S S S  
------------------------|-----------------------------------|
------------------------|-----------------------------------|
------------------------|-----------------------------------|
------------------------|-----------------------------------|
----------------3-0-3-5-|--0-0-0-x---3-5~-L-0-0-x-0-3-0-3-5-|
------------------------|--0-0-0-x-0------x-0-0-x-0---------|


  S S S S S S S  S S S S S S S S S    S S S S S S S  S S S S S S S S S  
-----------------------------------|-----------------------------------|
-----------------------------------|-----------------------------------|
-----------------------------------|-----------------------------------|
-----------------------------------|-----------------------------------|
--0-0-0-x---3-5~-L-0-0-x-0-3-0-3-5-|--0-0-0-x---3-5~-L-0-0-x-0-3-0-3-5-|
--0-0-0-x-0------x-0-0-x-0---------|--0-0-0-x-0------x-0-0-x-0---------|


  S S S S S S S  S S S S S S S S S    S S S S S S S  S S S S S S S S S  
-----------------------------------|-----------------------------------|
-----------------------------------|-----------------------------------|
-----------------------------------|-----------------------------------|
-----------------------------------|-----------------------------------|
--0-0-0-x---3-5~-L-0-0-x-0-3-0-3-5-|--0-0-0-x---3-5~-L-0-0-x-0-3-0-3-5-|
--0-0-0-x-0------x-0-0-x-0---------|--0-0-0-x-0------x-0-0-x-0---------|


  S S S S S S S  S S S S S S S S S    S S S S S S S  S S S S S S S S S  
-----------------------------------|-----------------------------------|
-----------------------------------|-----------------------------------|
-----------------------------------|-----------------------------------|
-----------------------------------|-----------------------------------|
--0-0-0-x---3-5~-L-0-0-x-0-3-0-3-5-|--0-0-0-x---3-5~-L-0-0-x-0-3-0-3-5-|
--0-0-0-x-0------x-0-0-x-0---------|--0-0-0-x-0------x-0-0-x-0---------|


  S S S S S S S  S S S S S S S S S    Q    Q     S  E   S E  S S  
-----------------------------------|-----------------------------|
-----------------------------------|-----------------------------|
-----------------------------------|-----------------------------|
-----------------------------------|--8----8----10-10--10-8--8-8-|
--0-0-0-x---3-5~-L-0-0-x-0-3-0-3-5-|--8----8-----8--8---8-8--8-8-|
--0-0-0-x-0------x-0-0-x-0---------|--8----8-----8--8---8-8--8-8-|


               |---3---|                                                   
   Q     Q     E   E   E   E   E     W                   W                 
----------------------------------|-------------------|-------------------|
----------------------------------|-------------------|-------------------|
----------------------------------|--2----------------|--5----------------|
--10----10----------------10---L--|--0----------------|--3----------------|
--10----10----10--10--10--10---L--|--0----------------|--3----------------|
--10----10----10--10--10--10---L--|--0----------------|--3----------------|


  W                   Q    E  S S S S E  S E.     W                 
-------------------|---------------------------|-------------------|
-------------------|--1----1-------------------|-------------------|
--5----------------|--3----3--x-x-x-x-5--x-5---|--2----------------|
--5----------------|--3----3--x-x-x-x-5--x-5---|--0----------------|
--3----------------|--1----1--x-x-x-x-3--x-3---|--0----------------|
-------------------|---------------------------|--0----------------|


  W                   W                    Q     E   E   E   E   E   E   
-------------------|-------------------|--------------------------------|
-------------------|-------------------|--------------------------------|
--5----------------|--5----------------|--------------------------------|
--3----------------|--5----------------|--10----10--10--10--10--10--10--|
--3----------------|--3----------------|---8-----8---8--10--10--10--10--|
--3----------------|-------------------|---8-----8---8--10--10--10--10--|


  W                   W                   W                 
-------------------|-------------------|-------------------|
-------------------|-------------------|-------------------|
--2----------------|--5----------------|--5----------------|
--0----------------|--3----------------|--5----------------|
--0----------------|--3----------------|--3----------------|
--0----------------|--3----------------|-------------------|


  Q    E  S S S S E  S E.     W                   W                 
---------------------------|-------------------|-------------------|
--1----1-------------------|-------------------|-------------------|
--3----3--x-x-x-x-5--x-5---|--2----------------|--5----------------|
--3----3--x-x-x-x-5--x-5---|--0----------------|--3----------------|
--1----1--x-x-x-x-3--x-3---|--0----------------|--3----------------|
---------------------------|--0----------------|--3----------------|


  W                   E  E  E  E  E  E  E  E   
-------------------|--------------------------|
-------------------|--1--1--1--1--------------|
--5----------------|--3--3--3--3--5--5--5--5--|
--5----------------|--3--3--3--3--5--5--5--5--|
--3----------------|--1--1--1--1--3--3--3--3--|
-------------------|--------------------------|


   S  S S S  S  S  S  S S S  S S  S  S S S  
-------------------------------------------|
-------------------------------------------|
-------------------------------------------|
-------------------------------------------|
-------------------------------------------|
--10-12-0-0-13-12-10-12-0-0-12-0-10-12-0-0-|


   S  S S S  S  S  S  S S S  S S  S  S  S  S  
---------------------------------------------|
---------------------------------------------|
---------------------------------------------|
---------------------------------------------|
---------------------------------------------|
--10-12-0-0-13-12-10-12-0-0-12-0-10-12-10~-L-|


   S  S S S  S  S  S  S S S  S S  S  S S S  
-------------------------------------------|
-------------------------------------------|
-------------------------------------------|
-------------------------------------------|
-------------------------------------------|
--10-12-0-0-13-12-10-12-0-0-12-0-10-12-0-0-|


   S  S S S  S  S  S  S S S  S  S  S  S  S  S     Q     Q    Q    Q      
----------------------------------------------|------------------------||
----------------------------------------------|------------------------||
----------------------------------------------|------------------------||
----------------------------------------------|------------------------||
----------------------------12-12-12-12-12-12-|--12\-------------------||
--10-12-0-0-13-12-10-12-0-0-12-12-12-12-12-12-|--12\-------------------||




Duration Legend
---------------
W - whole
H - half
Q - quarter
E - 8th
S - 16th
T - 32nd
X - 64th
. - note dotted
|-n-|  - n-tuplets


Tablature Legend
----------------
L - tied note
x - dead note
g - grace note
(n) - ghost note
> - accentuded note
NH - natural harmonic
AH - artificial harmonic
TH - tapped harmonic
SH - semi harmonic
PH - pitch harmonic
h - hammer on
p - pull off
b - bend
br - bendRelease
pb - preBend
pbr - preBendRelease
brb - bendReleaseBend
\n/ - tremolo bar dip
\n - tremolo bar dive
-/n - tremolo bar Release up
/n\ - tremolo bar inverted dip
/n - tremolo bar return
-\n - tremolo bar Release down
S - shift slide
s - legato slide
/ -  slide into from below or out of upwards
\ -  slide into from above or out of downwards
~ - vibrato
W - wide vibrato
tr - trill
TP - tremolo picking
T - tapping
S - slap
P - pop
< - fade in
^ - brush up
v - brush down
Добавлено: 14.05.2012
Другие материалы по этой песне:

Страница создана 17.03.2012
http://primanota.ru/entwine/chameleon-halo-chords.htm
Привет, Гость.
Предлагаем пройти революционный курс по гитаре.
Подарок от PrimaNota.Ru, забирай!