PrimaNota.ru - самый крупный в мире бесплатный архив песенных текстов, аккордов, табулатур и нот


Entwine - Carry On Dancing - таба, видео

Регистрация Запомнить меня
Войти через:  Facebook Google Twitter Vk Yandex Mail.ru

Entwine - Carry On Dancing - таба, видео

Печатать
Просмотров: 43
Guitar 1



     E  E  E  E  E  E  E  E     E  E  E  E  E  E  E  E   
D||--------------------------|--------------------------|
A||--------------------------|--------------------------|
F||--------------------------|--5--5--5--5--5--5--5--5--|
C||--0--0--0--0--0--0--0--0--|--5--5--5--5--5--5--5--5--|
G||--0--0--0--0--0--0--0--0--|--3--3--3--3--3--3--3--3--|
C||--0--0--0--0--0--0--0--0--|--------------------------|


  E  E  E  E  E  E  E  E     E  E  E  E  E  E  E  E   
--------------------------|--------------------------|
--------------------------|--------------------------|
--3--3--3--3--3--3--3--3--|--------------------------|
--3--3--3--3--3--3--3--3--|--5--5--5--5--7--7--7--7--|
--1--1--1--1--1--1--1--1--|--5--5--5--5--7--7--7--7--|
--------------------------|--5--5--5--5--7--7--7--7--|


  E  E  E  E  E  E  E  E     E  E  E  E  E  E  E  E   
--------------------------|--------------------------|
--------------------------|--------------------------|
--------------------------|--5--5--5--5--5--5--5--5--|
--0--0--0--0--0--0--0--0--|--5--5--5--5--5--5--5--5--|
--0--0--0--0--0--0--0--0--|--3--3--3--3--3--3--3--3--|
--0--0--0--0--0--0--0--0--|--------------------------|


  E  E  E  E  E  E  E  E     E  E  E  E  E  E  E  E                           
--------------------------|--------------------------|
--------------------------|--------------------------|
--3--3--3--3--3--3--3--3--|--------------------------|
--3--3--3--3--3--3--3--3--|--5--5--5--5--7--7--7--7--|
--1--1--1--1--1--1--1--1--|--5--5--5--5--7--7--7--7--|
--------------------------|--5--5--5--5--7--7--7--7--|

 S S E  E  S  S S S E  E  S  S    S S E  E  S  S S S E  E  S  S  
--------------------------------|--------------------------------|
--------------------------------|--------------------------------|
--------------------------------|--------------------------------|
--------------------------------|--------------------------------|
--5---5-----0s-3-5---5-----0s-3-|--5---5-----0s-3-5---5-----0s-3-|
--------------------------------|--------------------------------|


                               PM PM      PM PM        
                          Q    S  S  Q    S  S  E  E   
-----|-----|-----|-----|------------------------------|
-----|-----|-----|-----|------------------------------|
-----|-----|-----|-----|------------------------------|
-----|-----|-----|-----|------------------------------|
-----|-----|-----|-----|--5----5--5--5----5--5--5--5--|
-----|-----|-----|-----|------------------------------|


       PM PM      PM PM               PM PM      PM PM        
  Q    S  S  Q    S  S  E  E     Q    S  S  Q    S  S  E  E   
------------------------------|------------------------------|
------------------------------|------------------------------|
------------------------------|------------------------------|
------------------------------|------------------------------|
--7----7--7--7----7--7--7--7--|--8----8--8--8----8--8--8--8--|
------------------------------|------------------------------|


       PM PM         PM PM                                
  Q    S  S  E  Q    S  S  E     E  E  E  E  E  E  E  E   
------------------------------|--------------------------|
------------------------------|--------------------------|
------------------------------|--------------------------|
--5----5--5--5--7----7--7--7--|--0--0--0--0--0--0--0--0--|
------------------------------|--0--0--0--0--0--0--0--0--|
------------------------------|--0--0--0--0--0--0--0--0--|


  E  E  E  E  E  E  E  E     E  E  E  E  E  E  E  E   
--------------------------|--------------------------|
--------------------------|--------------------------|
--3--3--3--3--5--5--5--5--|--------------------------|
--3--3--3--3--5--5--5--5--|--0--0--0--0--0--0--0--0--|
--1--1--1--1--3--3--3--3--|--0--0--0--0--0--0--0--0--|
--------------------------|--0--0--0--0--0--0--0--0--|


  E  E  E  E  E  E  E  E     E  E  E  E  E  E  E  E   
--------------------------|--------------------------|
--------------------------|--------------------------|
--3--3--3--3--5--5--5--5--|--------------------------|
--3--3--3--3--5--5--5--5--|--0--0--0--0--0--0--0--0--|
--1--1--1--1--3--3--3--3--|--0--0--0--0--0--0--0--0--|
--------------------------|--0--0--0--0--0--0--0--0--|


  E  E  E  E  E  E  E  E     E  E  E  E  E  E  E  E   
--------------------------|--------------------------|
--------------------------|--------------------------|
--3--3--3--3--5--5--5--5--|--------------------------|
--3--3--3--3--5--5--5--5--|--0--0--0--0--0--0--0--0--|
--1--1--1--1--3--3--3--3--|--0--0--0--0--0--0--0--0--|
--------------------------|--0--0--0--0--0--0--0--0--|


  E  E  E  E  E  E  E  E                                                   
--------------------------|-----|-----|-----|-----|-----|-----|-----|-----|
--------------------------|-----|-----|-----|-----|-----|-----|-----|-----|
--3--3--3--3--5--5--5--5--|-----|-----|-----|-----|-----|-----|-----|-----|
--3--3--3--3--5--5--5--5--|-----|-----|-----|-----|-----|-----|-----|-----|
--1--1--1--1--3--3--3--3--|-----|-----|-----|-----|-----|-----|-----|-----|
--------------------------|-----|-----|-----|-----|-----|-----|-----|-----|


  E  E  E  E  E  E  E  E     E  E  E  E  E  E  E  E   
--------------------------|--------------------------|
--------------------------|--------------------------|
--------------------------|--3--3--3--3--5--5--5--5--|
--0--0--0--0--0--0--0--0--|--3--3--3--3--5--5--5--5--|
--0--0--0--0--0--0--0--0--|--1--1--1--1--3--3--3--3--|
--0--0--0--0--0--0--0--0--|--------------------------|


  E  E  E  E  E  E  E  E     E  E  E  E  E  E  E  E   
--------------------------|--------------------------|
--------------------------|--------------------------|
--------------------------|--3--3--3--3--5--5--5--5--|
--0--0--0--0--0--0--0--0--|--3--3--3--3--5--5--5--5--|
--0--0--0--0--0--0--0--0--|--1--1--1--1--3--3--3--3--|
--0--0--0--0--0--0--0--0--|--------------------------|


  E  E  E  E  E  E  E  E     E  E  E  E  E  E  E  E   
--------------------------|--------------------------|
--------------------------|--------------------------|
--------------------------|--3--3--3--3--5--5--5--5--|
--0--0--0--0--0--0--0--0--|--3--3--3--3--5--5--5--5--|
--0--0--0--0--0--0--0--0--|--1--1--1--1--3--3--3--3--|
--0--0--0--0--0--0--0--0--|--------------------------|


  E  E  E  E  E  E  E  E     E  E  E  E  E  E  E  E     W                 
--------------------------|--------------------------|-------------------|
--------------------------|--------------------------|-------------------|
--------------------------|--3--3--3--3--5--5--5--5--|-------------------|
--0--0--0--0--0--0--0--0--|--3--3--3--3--5--5--5--5--|--0----------------|
--0--0--0--0--0--0--0--0--|--1--1--1--1--3--3--3--3--|--0----------------|
--0--0--0--0--0--0--0--0--|--------------------------|--0----------------|


  H.           Q       E  S S E  E  S S E  E  E     E  S S E  E  S S E  E  E   
--------------------|----------------------------|----------------------------|
--------------------|----------------------------|----------------------------|
--------------------|----------------------------|----------------------------|
--L-----------------|--0--0-1-0--0--0-1-0--0--5--|--0--0-1-0--0--0-1-0--0--2--|
--L-----------------|--0--0-1-0--0--0-1-0--0--3--|--0--0-1-0--0--0-1-0--0--0--|
--L-----------------|--0--0-1-0--0--0-1-0--0-----|--0--0-1-0--0--0-1-0--0-----|


  E  S S E  E  S S E  E  E     E  S S E  E  S S E  E  E                     
----------------------------|----------------------------|-----|-----|-----|
----------------------------|----------------------------|-----|-----|-----|
----------------------------|----------------------------|-----|-----|-----|
--0--0-1-0--0--0-1-0--0--5--|--0--0-1-0--0--0-1-0--0--2--|-----|-----|-----|
--0--0-1-0--0--0-1-0--0--3--|--0--0-1-0--0--0-1-0--0--0--|-----|-----|-----|
--0--0-1-0--0--0-1-0--0-----|--0--0-1-0--0--0-1-0--0-----|-----|-----|-----|


   E   E   E   E   E   E   E   E   
----------------------------------|
----------------------------------|
--10--10--10--10--12--12--12--12--|
----------------------------------|
---8---8---8---8--10--10--10--10--|
----------------------------------|


   S   S  S  S  S  S  S  S  S  S  S  S  S  S  S  S  
---------------------------------------------------|
---------------------------------------------------|
--12S-14-14-14--x-14-14-14-14-14--x-14-14-14-14-14-|
---------------------------------------------------|
--10S-12-12-12--x-12-12-12-12-12--x-12-12-12-12-12-|
---------------------------------------------------|


   S   S  S  S  S  S  S  S  S  S  S  S  S  S  S  S  
---------------------------------------------------|
---------------------------------------------------|
--14S-12-12-12--x-12-12-12-12-12--x-12-12-12-12-12-|
---------------------------------------------------|
--12S-10-10-10--x-10-10-10-10-10--x-10-10-10-10-10-|
---------------------------------------------------|


   S   S  S  S  S  S  S  S  S  S  S  S  S  S  S  S  
---------------------------------------------------|
---------------------------------------------------|
--12S-14-14-14--x-14-14-14-14-14--x-14-14-14-14-14-|
---------------------------------------------------|
--10S-12-12-12--x-12-12-12-12-12--x-12-12-12-12-12-|
---------------------------------------------------|


   S   S  S  S  S  S  S  S  S  S  S  S  S  S  S  S  
---------------------------------------------------|
---------------------------------------------------|
--14S-12-12-12--x-12-12-12-12-12--x-12-12-12-12-12-|
---------------------------------------------------|
--12S-10-10-10--x-10-10-10-10-10--x-10-10-10-10-10-|
---------------------------------------------------|


   S   S  S  S  S  S  S  S  S   S  S  S  S  S  S  S  
----------------------------------------------------|
----------------------------------------------------|
--12S-10-10-10--x-10-10-10-10S-12-12-12-12-12-12-12-|
----------------------------------------------------|
--10S--8--8--8--x--8--8--8--8S-10-10-10-10-10-10-10-|
----------------------------------------------------|


   S  S S S S S S S S  S S S S S S S    S  S S S S S S S S S S S S S S S  
-------------------------------------|-----------------------------------|
-------------------------------------|-----------------------------------|
--12S-9-9-9-x-9-9-9-9S-5-5-5-5-5-5-5-|--5S-7-7-7-x-5-5-5-5-7-7-7-7-7-7-7-|
-------------------------------------|-----------------------------------|
--10S-7-7-7-x-7-7-7-7S-3-3-3-3-3-3-3-|--3S-5-5-5-x-3-3-3-3-5-5-5-5-5-5-5-|
-------------------------------------|-----------------------------------|


  S   S  S  S  S  S  S  S  S  S S S S S S S    W                             
--------------------------------------------|-------------------|-----|-----|
--------------------------------------------|-------------------|-----|-----|
--7S-10-10-10-10-10-10-10-10S-9-9-9-9-9-9-9-|--7----------------|-----|-----|
--------------------------------------------|-------------------|-----|-----|
--5S--8--8--8--8--8--8--8--8S-7-7-7-7-7-7-7-|--5----------------|-----|-----|
--------------------------------------------|-------------------|-----|-----|


                                     PM PM      PM PM        
                                Q    S  S  Q    S  S  E  E   
-----|-----|-----|-----|-----|------------------------------|
-----|-----|-----|-----|-----|------------------------------|
-----|-----|-----|-----|-----|------------------------------|
-----|-----|-----|-----|-----|------------------------------|
-----|-----|-----|-----|-----|--5----5--5--5----5--5--5--5--|
-----|-----|-----|-----|-----|------------------------------|


       PM PM      PM PM               PM PM      PM PM        
  Q    S  S  Q    S  S  E  E     Q    S  S  Q    S  S  E  E   
------------------------------|------------------------------|
------------------------------|------------------------------|
------------------------------|------------------------------|
------------------------------|------------------------------|
--7----7--7--7----7--7--7--7--|--8----8--8--8----8--8--8--8--|
------------------------------|------------------------------|


       PM PM         PM PM                                
  Q    S  S  E  Q    S  S  E     E  E  E  E  E  E  E  E   
------------------------------|--------------------------|
------------------------------|--------------------------|
------------------------------|--------------------------|
--5----5--5--5--7----7--7--7--|--0--0--0--0--0--0--0--0--|
------------------------------|--0--0--0--0--0--0--0--0--|
------------------------------|--0--0--0--0--0--0--0--0--|


  E  E  E  E  E  E  E  E     E  E  E  E  E  E  E  E   
--------------------------|--------------------------|
--------------------------|--------------------------|
--3--3--3--3--5--5--5--5--|--------------------------|
--3--3--3--3--5--5--5--5--|--0--0--0--0--0--0--0--0--|
--1--1--1--1--3--3--3--3--|--0--0--0--0--0--0--0--0--|
--------------------------|--0--0--0--0--0--0--0--0--|


  E  E  E  E  E  E  E  E     E  E  E  E  E  E  E  E   
--------------------------|--------------------------|
--------------------------|--------------------------|
--3--3--3--3--5--5--5--5--|--------------------------|
--3--3--3--3--5--5--5--5--|--0--0--0--0--0--0--0--0--|
--1--1--1--1--3--3--3--3--|--0--0--0--0--0--0--0--0--|
--------------------------|--0--0--0--0--0--0--0--0--|


  E  E  E  E  E  E  E  E     E  E  E  E  E  E  E  E   
--------------------------|--------------------------|
--------------------------|--------------------------|
--3--3--3--3--5--5--5--5--|--------------------------|
--3--3--3--3--5--5--5--5--|--0--0--0--0--0--0--0--0--|
--1--1--1--1--3--3--3--3--|--0--0--0--0--0--0--0--0--|
--------------------------|--0--0--0--0--0--0--0--0--|


  E  E  E  E  E  E  E  E     E  E  E  E  E  E  E  E   
--------------------------|--------------------------|
--------------------------|--------------------------|
--3--3--3--3--5--5--5--5--|--------------------------|
--3--3--3--3--5--5--5--5--|--0--0--0--0--0--0--0--0--|
--1--1--1--1--3--3--3--3--|--0--0--0--0--0--0--0--0--|
--------------------------|--0--0--0--0--0--0--0--0--|


  E  E  E  E  E  E  E  E     E  E  E  E  E  E  E  E   
--------------------------|--------------------------|
--------------------------|--------------------------|
--3--3--3--3--5--5--5--5--|--------------------------|
--3--3--3--3--5--5--5--5--|--0--0--0--0--0--0--0--0--|
--1--1--1--1--3--3--3--3--|--0--0--0--0--0--0--0--0--|
--------------------------|--0--0--0--0--0--0--0--0--|


  E  E  E  E  E  E  E  E     E  E  E  E  E  E  E  E   
--------------------------|--------------------------|
--------------------------|--------------------------|
--3--3--3--3--5--5--5--5--|--------------------------|
--3--3--3--3--5--5--5--5--|--0--0--0--0--0--0--0--0--|
--1--1--1--1--3--3--3--3--|--0--0--0--0--0--0--0--0--|
--------------------------|--0--0--0--0--0--0--0--0--|


  E  E  E  E  E  E  E  E     E  E  E  E  E  E  E  E   
--------------------------|--------------------------|
--------------------------|--------------------------|
--3--3--3--3--5--5--5--5--|--------------------------|
--3--3--3--3--5--5--5--5--|--0--0--0--0--0--0--0--0--|
--1--1--1--1--3--3--3--3--|--0--0--0--0--0--0--0--0--|
--------------------------|--0--0--0--0--0--0--0--0--|


  E  E  E  E  E  E  E  E     E  E  E  E  E  E  E  E   
--------------------------|--------------------------|
--------------------------|--------------------------|
--3--3--3--3--5--5--5--5--|--------------------------|
--3--3--3--3--5--5--5--5--|--0--0--0--0--0--0--0--0--|
--1--1--1--1--3--3--3--3--|--0--0--0--0--0--0--0--0--|
--------------------------|--0--0--0--0--0--0--0--0--|


  E  E  E  E  E  E  E  E     E  E  E  E  E  E  E  E   
--------------------------|--------------------------|
--------------------------|--------------------------|
--5--5--5--5--5--5--5--5--|--3--3--3--3--3--3--3--3--|
--5--5--5--5--5--5--5--5--|--3--3--3--3--3--3--3--3--|
--3--3--3--3--3--3--3--3--|--1--1--1--1--1--1--1--1--|
--------------------------|--------------------------|


  E  E  E  E  E  E  E  E          
--------------------------|-----||
--------------------------|-----||
--------------------------|-----||
--5--5--5--5--7--7--7--7--|-----||
--5--5--5--5--7--7--7--7--|-----||
--5--5--5--5--7--7--7--7--|-----||




Duration Legend
---------------
W - whole
H - half
Q - quarter
E - 8th
S - 16th
T - 32nd
X - 64th
. - note dotted
|-n-|  - n-tuplets


Tablature Legend
----------------
L - tied note
x - dead note
g - grace note
(n) - ghost note
> - accentuded note
NH - natural harmonic
AH - artificial harmonic
TH - tapped harmonic
SH - semi harmonic
PH - pitch harmonic
h - hammer on
p - pull off
b - bend
br - bendRelease
pb - preBend
pbr - preBendRelease
brb - bendReleaseBend
\n/ - tremolo bar dip
\n - tremolo bar dive
-/n - tremolo bar Release up
/n\ - tremolo bar inverted dip
/n - tremolo bar return
-\n - tremolo bar Release down
S - shift slide
s - legato slide
/ -  slide into from below or out of upwards
\ -  slide into from above or out of downwards
~ - vibrato
W - wide vibrato
tr - trill
TP - tremolo picking
T - tapping
S - slap
P - pop
< - fade in
^ - brush up
v - brush down
Добавлено: 07.11.2015
Другие материалы по этой песне:

Страница создана 15.04.2015
http://primanota.ru/entwine/carry-on-dancing-chords.htm
Привет, Гость.
Предлагаем пройти революционный курс по гитаре.
Подарок от PrimaNota.Ru, забирай!