PrimaNota.ru - самый крупный в мире бесплатный архив песенных текстов, аккордов, табулатур и нот


Entwine - Break Me - текст песни, таба, видео

Регистрация Запомнить меня
Войти через:  Facebook Google Twitter Vk Yandex Mail.ru

Entwine - Break Me - текст песни, таба, видео

Печатать
Просмотров: 203
drop C tuning(dAFCGC)

bass intro
F|------------------------------------------|
C|------------------------------------------|
G|------------------------------------------|
C|-0-0-0-0-0-0-0-0--000--0-0-0-0-0-0--------|


intro
D|-------|
A|-------|
F|-------|
C|-14\ps-|
G|-14\ps-|
C|-14\ps-|

D|------------------------------------------------------|
A|------------------------------------------------------|
F|------------------------------------------------------|2X
C|-00-0-0--0--0-000--0--0-0--0--000--0--0---000---------|
G|-00-0-0--0--0-000--0--0-0--0--000--0--0---000---------|
C|-00-0-0--0--0-000--0--0-0--0--000--0--0---000---------|
PM            . ...


clean part (verse)



pre-chours

D|------------------------------------------------|
A|------------------------------------------------|
F|------------------------------3-----5-----------|
C|-00-0-0--0--0-000--0--0-0--0--3-----5--12\ps----|
G|-00-0-0--0--0-000--0--0-0--0--1-----3--12\ps----|
C|-00-0-0--0--0-000--0--0-0--0-----------12\ps----|
PM            . ...

guitar 1
D|----------------------------------------------|
A|----------------------------------------------|
F|------------------------------3-----5--777----|
C|-00-0-0--0--0-000--0--0-0--0--3-----5--555----|
G|-00-0-0--0--0-000--0--0-0--0--1-----3--333----|
C|-00-0-0--0--0-000--0--0-0--0------------------|
PM            . ...

guitar2
D|----------------------------------------------|
A|----------------------------------------------|
F|------------------------------3-----5---------|
C|-00-0-0--0--0-000--0--0-0--0--3-----5--555----|
G|-00-0-0--0--0-000--0--0-0--0--1-----3--555----|
C|-00-0-0--0--0-000--0--0-0--0-----------555----|
PM            . ...

chours(guitar1/guitar2)

|-----------------------------|
|-----------------------------|
|--------------------3333333--|
|-00000000-33333333--3333333--|2X
|-00000000-33333333--1111111--|
|-00000000-33333333-----------|

4thX play this part end chours

|---------------------------------------|
|---------------------------------------|
|--------------------3333333--55555555--|
|-00000000-33333333--3333333--55555555--|
|-00000000-33333333--1111111--33333333--|
|-00000000-33333333---------------------|

play intro

verse

pre chours

D|-----------------------|
A|-----------------------|
F|-3----------5----------|
C|-3----------5----12\---|
G|-1----------3----12\---|
C|-----------------12\---|

guitar 1
D|----------------------------------------------|
A|----------------------------------------------|
F|------------------------------3-----5--777----|
C|-00-0-0--0--0-000--0--0-0--0--3-----5--555----|
G|-00-0-0--0--0-000--0--0-0--0--1-----3--333----|
C|-00-0-0--0--0-000--0--0-0--0------------------|
PM            . ...

guitar2
D|----------------------------------------------|
A|----------------------------------------------|
F|------------------------------3-----5---------|
C|-00-0-0--0--0-000--0--0-0--0--3-----5--555----|
G|-00-0-0--0--0-000--0--0-0--0--1-----3--555----|
C|-00-0-0--0--0-000--0--0-0--0-----------555----|
PM            . ...


chours


solo(incomplete)

D|-17b-------------------------------------------------|
A|-----1515-18-17-1313~~-15-181715????-----------------|
F|------------------------------------sorry------------|
C|-----------------------------------------12-15-12~~--|
G|-----------------------------------------------------|
C|-----------------------------------------------------|

                           \/use super-vibrato \/(use the hand to slide)
D|--------------------------------------------------------|
A|-15---17---18--19--?????-15~~~~~~~~\slide without picking
F|-17b--19b--20b-22b--------------------------------------|
C|--------------------------------------------------------|
G|--------------------------------------------------------|
C|--------------------------------------------------------|

keyboard part

breakdown

D|-----------------------------------------------------------|
A|-----------------------------------------------------------|
F|-33333333333333333333333-----------------------------------|
C|-33333333333333333333333-3333333333333333------------------|
G|-11111111111111111111111-3333333333333333------------------|
C|-------------------------3333333333333333--0-3-0-5-3-5-----|

chours 2X

touch this part(fills) during the final chorus
D|-------17--------17--------17---20--18--17--|
A|-15-18-----15-18-----15-18------------------|
F|--------------------------------------------|
C|--------------------------------------------|
G|--------------------------------------------|
C|--------------------------------------------|


intro


KEYS(LEGEND)
b= bend
ps= picking slide(use the pick on the strings sliding)
\= slide
~= vibrato
PM= palm mute
.= use PM
Добавлено: 02.10.2013
Другие материалы по этой песне:

Страница создана 21.02.2012
http://primanota.ru/entwine/break-me-chords.htm
Привет, Гость.
Предлагаем пройти революционный курс по гитаре.
Подарок от PrimaNota.Ru, забирай!