PrimaNota.ru - самый крупный в мире бесплатный архив песенных текстов, аккордов, табулатур и нот


Entwine - As We Rise - таба, видео

Регистрация Запомнить меня
Войти через:  Facebook Google Twitter Vk Yandex Mail.ru

Entwine - As We Rise - таба, видео

Печатать
Просмотров: 93
Уроки эстрадного вокала в Санкт-Петербурге
                                                    
intro
                       
D||--------2--2--1--1---------|
A||---2-2--------------2--2---|
F||*-------------------------*|  repeat many times
C||*-------------------------*|
G||---------------------------|
C||---------------------------|


verse 2 (distortion guitar)

|--------------------------|
|--------------------------|
|--------------------------|
|--0--2--2--0--2--2--0--2--|
|--0--2--2--0--2--2--0--2--|
|--0--2--2--0--2--2--0--2--|
           
--------------------------|
--------------------------|
--------------------------|
--2--0--2--2--2--5--5--5--|
--2--0--2--2--2--5--5--5--|
--2--0--2--2--2--5--5--5--|
Добавлено: 07.05.2016
Другие материалы по этой песне:
  • Аккорды и текст

Страница создана 07.05.2016
http://primanota.ru/entwine/as-we-rise-chords.htm
Привет, Гость.
Предлагаем пройти революционный курс по гитаре.
Подарок от PrimaNota.Ru, забирай!