PrimaNota.ru - самый крупный в мире бесплатный архив песенных текстов, аккордов, табулатур и нот


Entwine - Another Life - таба, видео

Регистрация Запомнить меня
Войти через:  Facebook Google Twitter Vk Yandex Mail.ru

Entwine - Another Life - таба, видео

Печатать
Просмотров: 214
chords used
  Gsus4 Fadd11
e-3-----1------|
B-3-----1------|
G-5-----3------|
D-5-----3------|
A-3-----1------|
E-3-----1------|

intro/ riff 1
e-----------------------------------------------|
B-----------------------------------------------|
G-----------------------------------------------|
D------12------12----12------13------12------10-|   6X
A---10------10----10----(10)----(10)----(10)----|
E-8-------8-------------------------------------|

  riff 2
e------------|
B-------3,,,-|
G---5--------|
D-5---5------|
A------------|
E------------|

              riff 2
who have constantly
                riff 2
where here to finally

where next somebody
        riff 2
cause break's my real life

riff 3
e---------------------------------|
B---------------------------------|
G-----7-----7---7----8-----7----5-|
D---5-----5---5---(0)--(0)---(0)--|
A-3-----3-------------------------|
E---------------------------------|


 riff 3
 |I'm trying feel my hands|
 |before disease a pin    |
 |i'm trying feel my hands|  use the riff 3
 |to the real, to the real|
 |near eyes               |

Gsus4      Fadd11
faith down,to face another life
                         Gsus4
I'm really no behind to be free
   Fadd11         Gsus4
all this time..to face another life
Fadd11                    Gsus4
today all find another life

solo 1

e-----------------------------------------------------------|
B-----------------------------------------------------------|
G--------------------------------5h7p5-4h6p4~~-5-7-8--6-7-9-|
D--------------------------14-12----------------------------|
A-0-3-5-3~~----------12-14----------------------------------|
E-----------8-10-13~~---------------------------------------|

                         [ quick part        ]    riff 2
e----------------------------------------------------------|
B--------------------------13-12-10-8-7-8----------------3-|
G-8-9-11--10-8s6s8-8-10-8----------------5-7-5-------5-----|
D--------------------------------------------------5---5---|
A----------------------------------------------------------|
E----------------------------------------------------------|

[riff 2]
who have constantly
where here to finally
where next somebody
cause break's my real lifes

[riff 3]
i'm trying feel my hands
before disease a pin
i'm trying feel my hands
to the real, to the move eyes hurt

chours:

Gsus4      Fadd11
faith down,next me face another life
Gsus4
really a tray
                   Fadd11
all a time to be free
               Gsus4  Fadd11
all really's time..to face another life
Gsus4                  Fadd11
today will find another life


pre-solo/ guitar 1
e----------------------------------|
B---------8-------10-------8-------|
G-----8-----8---8----8---8---8---8-|
D---8---8-----8--------8-------8---|
A-8--------------------------------|
E----------------------------------|


solo 2/guitar 2
e--------------------------------------|
B-5h7~~~~--7gs10-9-7-5-7-3-5-1h3p1~~,,-|
G--------------------------------------|
D--------------------------------------|
A--------------------------------------|
E--------------------------------------|

e---------------------------------------------------|
B-----4-6-6h7p6,,~-4h6p4(5~~)-3h5p3(4~~)-1h3p1(2~~)-|
G-2s4-----------------------------------------------|
D---------------------------------------------------|
A---------------------------------------------------|
E---------------------------------------------------|

Gsus4      Fadd11
faith down,next me face another life
Gsus4
really a tray
                   Fadd11
all a time to be free
               Gsus4  Fadd11
all really's time..to face another life
Gsus4                  Fadd11
today will find another life...

will find another life

|e--------------|
|B-10-10-8-10~~-|
|G--------------|

|intro/riff 1 [finish the song]-with ghost note


legend

~ =vibrato
h=hammer-om
p=pull-off
gs= grace note with slide
( )= ghost note
s= slide
,,=hold note
Добавлено: 20.03.2012
Другие материалы по этой песне:
  • Аккорды и текст

Страница создана 20.03.2012
http://primanota.ru/entwine/another-life-chords.htm
Привет, Гость.
Предлагаем пройти революционный курс по гитаре.
Подарок от PrimaNota.Ru, забирай!