PrimaNota.ru - самый крупный в мире бесплатный архив песенных текстов, аккордов, табулатур и нот


Entwine - Adrenalize - таба, видео

Регистрация Запомнить меня
Войти через:  Facebook Google Twitter Vk Yandex Mail.ru

Entwine - Adrenalize - таба, видео

Печатать
Просмотров: 92
clean intro                                             
   
D||---------------------------0------------|-----------0------------|
A||------------------------3----------3----|--------3----------3----|
F||---------------------5----------5-------|-----5----------5-------|
C||--0-------------------------------------|--0---------------------|
G||----------------------------------------|------------------------|
C||----------------------------------------|------------------------|


             
-----------3------------|-----------3----0-------|-------||
--------3-------3-------|--------3----------3----|-------||
-----5-------------5----|-----5------------------|-------||
--0---------------------|--0---------------------|-------||
------------------------|------------------------|-------||
------------------------|------------------------|-------||
Добавлено: 07.05.2016
Другие материалы по этой песне:
  • Аккорды и текст

Страница создана 07.05.2016
http://primanota.ru/entwine/adrenalize-chords.htm
Привет, Гость.
Предлагаем пройти революционный курс по гитаре.
Подарок от PrimaNota.Ru, забирай!