PrimaNota.ru - самый крупный в мире бесплатный архив песенных текстов, аккордов, табулатур и нот


Entombed - I For An Eye - текст песни, таба, видео

Регистрация Запомнить меня
Войти через:  Facebook Google Twitter Vk Yandex Mail.ru

Entombed - I For An Eye - текст песни, таба, видео

Печатать
Просмотров: 212
Авторы музыки: Uffe Cederlund
Авторы текста: Orvar Säfström
Band- Entombed
Song- I For An Eye

Tuning:D,G,C,F,A,D
Intro: Riff#1
|-----------|
|-----------|
|-----------|
|-----------|
|-576465452-|
|-354243230-|

Riff#2 Verse
|----------------------------------------------|
|----------------------------------------------|
|----------------------------------------------|
|-------------------------------------------**-|
|-2----hh----hh----hh---2----hh-------------32-|
|-0-00013-00035-00056-000-00013-00035-00056-10-|
    ...   ...   ...   ..  ...   ...   ...
*Varies between those and the chords of those an octave higher.
Riff#3 Chorus
|--------------------------------------------|
|--------------------------------------------|
|--------------------------------------------|
|-----11\10--10\9---9\8--------------------8-|
|-2----9\8----8\7---7\6---2---5\4---4\3---96-|
|-0-00-----00-----00----000-003\2-002\1-007--|
    ..     ..     ..    ..  ..    ..

2nd time End with Riff#1

Riff#4
|---------------------------------------------|
|---------------------------------------------|
|---------4f----------------------4f----------|
|---4-3-------4-3----3------4-3---------------|
|-2-2-1-3---2-2-1--5-1-5--2-2-1-3---576465452-|
|-0---------0------3---3--0---------354243230-|

Play that twice, then instead of the 4th fret bend on the G string,
bend the 3rd fret on the A a full step up.

Riff#5                             x4
|------------------------------------|
|------------------------------------|
|------------------------------------|
|------------------------------------|
|-2----pp--<78>-653-2----pp---532--8-|
|-0000310000--00431-0000310000310006-|
   ...   ...  ..     ...   ...   ..

Once again, I don't have the solo :( Not yet anyways, I'll work on it
and see what I can do, sorry!

Riff#6 (Under solo)
|-------------------------------------|
|-------------------------------------|
|-------------------------------------|
|-----------------h-----------------p-|
|-5----pp----pp--34-5----pp----pp--43-|
|-333364343364333---333364343364333---|
   ...    ..   ..    ...    ..   ..


Riff#7
|--------------------------------------|
|------------------h-----------------p-|
|-----pp-----pp---56----pp-----pp---65-|
|----8656---865655-----8656---865655---|
|-5-------------..--5-------------..---|
|-333----333--------333----333---------|
   ..    ...         ..    ...
Добавлено: 09.05.2012
Другие материалы по этой песне:

Страница создана 27.02.2012
http://primanota.ru/entombed/i-for-an-eye-chords.htm
Привет, Гость.
Предлагаем пройти революционный курс по гитаре.
Подарок от PrimaNota.Ru, забирай!