PrimaNota.ru - самый крупный в мире бесплатный архив песенных текстов, аккордов, табулатур и нот


Entombed - Hellraiser - текст песни, бас-таба, видео

Регистрация Запомнить меня
Войти через:  Facebook Google Twitter Vk Yandex Mail.ru

Entombed - Hellraiser - текст песни, бас-таба, видео

Печатать
Просмотров: 203
Уроки эстрадного вокала в Санкт-Петербурге
Авторы музыки: Christopher Young

Band- Entombed
Song- Hellraiser

KEY:
v: vibrato

   4x     v        v              
||---------------------------|| 
||---------------------------||
||--------3--------5---------||
||---------------------------|| 




    1x    v        v    v               
||---------------------------------||
||---------------------------------|| 
||--------3--------5---9-----------||
||---------------------------------||


    3x   v       v                 
||-----------------------|| 
||-----------------------|| 
||-------3-------5-------|| 
||-----------------------|| 


  1x
||-------------------------------||
||-------------------------------|| 
||------3-------5---4---3--------||
||-------------------------------||



                                                                                        3x                  
||--------------------------------------||
||--------------------------------------||
||-------3-------5---4---3------9-------|| 
||--------------------------------------||




    4x   
||----------------------------------------------------------|| 
||-------------5--6--5--4----3----------5--6--5--4----------|| 
||-----3----5--------------5---4--3---5---------------------||
||----------------------------------------------------------||


   1x
||--------------||
||--------------||
||-----0--------||
||--------------||

  4x
||----------------------------------------------------------||
||----------------------------------------------------------||
||-------5--0--5--4--3--0--3--4--5--0--5--4--0--------------||   
||----------------------------------------------------------||



Fast  (listen to the song to get the correct length)
||--------------------------------------------------------------------------||
||--------------------------------------------------------------------------||
||-3--2--1----1--2--3----3--2--1---1----1---2--3---3----3--2--1---1---------||
||-------------------------------3---3-----------3---3----------3--3--------||




  3x      v         v               
||------------------------||
||------------------------||
||--------3---------5-----||
||------------------------||




   1x    v        v    v     
||----------------------------|| 
||----------------------------||
||-------3--------5----9------|| 
||----------------------------||


   3x      v         v     
||--------------------------||
||--------------------------|| 
||---------3---------5------||   
||--------------------------||


   1x
||-------------------------------||
||-------------------------------||
||-------3--------5---4---3------||  
||-------------------------------||
Добавлено: 20.04.2012
Другие материалы по этой песне:
  • Аккорды и текст

Страница создана 20.04.2012
http://primanota.ru/entombed/hellraiser-chords.htm
Привет, Гость.
Предлагаем пройти революционный курс по гитаре.
Подарок от PrimaNota.Ru, забирай!