PrimaNota.ru - самый крупный в мире бесплатный архив песенных текстов, аккордов, табулатур и нот


Enthroned - Walpurgis Night - аккорды и текст, таба, видео

Регистрация Запомнить меня
Войти через:  Facebook Google Twitter Vk Yandex Mail.ru

Enthroned - Walpurgis Night - аккорды и текст, таба, видео

Печатать
Просмотров: 110
Walpurgis Night
Enthroned
		   E N T H R O N E D  -  W A L P U R G I S  N I G H T
                    * * * * * * * * *  *  * * * * * * * * *  * * * * *



Disco: Regie Sathanas - Tributo a Cernnunos
Disc: Regie Sathanas - Tribute to Cernnunos

Trascrevida por: Tales Hemann - Ijuí/RS-Brasil
Trascribed by: Tales Hemann - Brazil

Versão  03/2003
Version  March/2003

Afinacão - Normal
Tuning - Normal

_________________________________________________________________________________
¯¯¯¯¯¯¯¯¯¯¯¯¯¯¯¯¯¯¯¯¯¯¯¯¯¯¯¯¯¯¯¯¯¯¯¯¯¯¯¯¯¯¯¯¯¯¯¯¯¯¯¯¯¯¯¯¯¯¯¯¯¯¯¯¯¯¯¯¯¯¯¯¯¯¯¯¯¯¯¯¯
_________________________________________________________________________________
¯¯¯¯¯¯¯¯¯¯¯¯¯¯¯¯¯¯¯¯¯¯¯¯¯¯¯¯¯¯¯¯¯¯¯¯¯¯¯¯¯¯¯¯¯¯¯¯¯¯¯¯¯¯¯¯¯¯¯¯¯¯¯¯¯¯¯¯¯¯¯¯¯¯¯¯¯¯¯¯¯

...intro...  REPEAT  2x
e|--------------------------------------||
B|--------------------------------------||
G|--------------------------------------||
D|-2)--2-2--3)--3-3--2)--2-2--5)--2))---||
A|-2)--2-2--3)--3-3--2)--2-2--5)--2))---||
E|-0)--0-0--1)--1-1--0)--0-0--3)--0))---||




RIFF 1
 | 2x   ||    1x     |    2x
e|------||-----------|--------------------------------------------------------------------------------------------------||
B|------||-----------|--------------------------------------------------------------------------------------------------||
G|------||-----------|--------------------------------------------------------------------------------------------------||
D|-(2)--||-----------|-----------------55-33------------------------------------------55-33-----------------------------||
A|-(2)--||--333222---|0000-77-55-77-88--------000-77-55-777-555-7-8-77---000-77-55-77---------000-77-55-77--------------||
E|-(0)--||--------333|-------------------------------------------------------------------------------------888-777-333--||





RIFF 2  - Repete 4x  -  Repeat 4x
e|----------------------------------||
B|----------------------------------||
G|----------------------------------||
D|----------------------------------||
A|-7-7-7--5-5--10-7-7-7--5-5--10)---||
E|-5-5-5--3-3--8--5-5-5--3-3--8-)---||




RIFF 3 - 1x

 |      RIFF 3a                            | RIFF 3b                             |         |
e|-----------------------------------------|-------------------------------------|---------|---------------------------------------------------||
B|-----------------------------------------|-------------------------------------|---------|---------------------------------------------------||
G|-----------------------------------------|-------------------------------------|-REPEAT--|---------------------------------------------------||
D|--------9999910101010--------------------|------9999-10101010------------------|-RIFF 3a-|------9999-10101010--------------------------------||
A|-777777-777778-8-8-8--10101010-999-12-10-|-7777-7777-8-8-8-8--10101010--9)-12)-|---------|-7777-7777-8-8-8-8--10101010--7--12--10------------||
E|-555555---------------8-8-8-8--777-10-8--|-5555---------------8-8-8-8---7)-10)-|---------|-5555---------------8-8-8-8---5--10--8-------------||
														          |   |  | => break





RIFF 4
    Repete 4x - Repeat 4x
e|-------------------------------------------------||
B|-------------------------------------------------||
G|-------------------------------------------------||
D|--9999-10-9---------------7777-8-7---------------||
A|--7777-7--7--101010-11-10-5555-5-5--777-666-77---||
E|-------------8-8-8--8--8------------555-444-55---||




RIFF 5
        Repete 3x - Repeat 3x
e|--------------------------------------------------------------------------------||
B|--------------------------------------------------------------------------------||
G|--------------------------------------------------------------------------------||
D|-7-7-7--9-9-9-1010-------9-9-9-1010---------9-9-9-1010-12-12-12-1010-9-9-9-10---||
A|-5-5-5--7-7-7-8-8---8-8--7-7-7-8-8--101010--7-7-7-8-8--10-10-10-8-8--7-7-7-8----||
E|--------------------6-6-------------8-8-8---------------------------------------||



RIFF 6  REFRÃO - CHORUS
    REPETE 8x - REPEAT 8x	 ||final do RIFF - final of RIFF||
e|-------------------------------||-----------------------------||
B|-------------------------------||-----------------------------||
G|-------------------------------||-----------------------------||
D|-----------------------5-------||--------5--------------------||
A|-5--7-8--3--7-8-5--7-8---8-7-8-||--7--8-----8--7--8-----------||
E|-------------------------------||-----------------------------||



solo... (guitar 1)

RIFF 7 (BASE)
     GUITAR 2 (PART 1)   |(PART 2)|               |  (PART 3)  ||
e|-----------------------|--------|---------------|------------||
B|-----------------------|--------|---------------|------------||
G|-----------------------|--------|----REPEAT-----|------------||
D|-----------------------|--------|----PART 1-----|------------||
A|-99999-55555--77-99999-|-4)-5)--|---------------|-4-4--5-5---||
E|-77777-33333--55-77777-|-2)-3)--|---------------|-2-2--3-3---||



RIFF 8
        REPEAT 5x
e|------------------------------------------------------------------------||
B|------------------------------------------------------------------------||
G|------------------------------------------------------------------------||
D|-222222-3332h32-----------------2222555544h5-------9-9-9-9--6-6--4-4----||
A|-000000-0000000--222223333222---000000000000-------7-7-7-7--3-3--2-2----||
E|-----------------0000000000000---------------------0-0-0-0--------------||




RIFF 9
         RIFF 9a - REPEAT 4x				    ||    RIFF 9b - REPEAT 2x
e|----------------------------------------------------------||------------------------------------------------------------||
B|----------------------------------------------------------||------------------------------------------------------------||
G|----------------------------------------------------------||-----------------7)-----------------------------------------||
D|----------------7)----------------------------------------||--(7)-7--9-10-9-7----10-9-10-9-7)--7--9-10-9-7-5)---7-9-7---||
A|-(7)-7--9-10-9-7----10-9-10-9-7)--7--9-10-9-7-5)---7-9-7--||------------------------------------------------------------||
E|----------------------------------------------------------||------------------------------------------------------------||


REPEAT RIFF 9a 2x

REPEAT RIFF 9b 2x

REPEAT RIFF 9a 2x

REPEAT RIFF 9b 2x

REPEAT RIFF 9a 2x



RIFF 10					       | ENTER  | 								      |FINAL||
       PART 1       |    PART 2       |        |guitar 2|        |        |        | PART 3        |        |	     |	      |CHORD||
e|------------------|-----------------|--------|--------|--------|--------|--------|---------------|--------|--------|--------|-----||
B|------------------|-----------------|--------|--------|--------|--------|--------|---------------|--------|--------|--------|-----||
G|------------------|-----------------|-REPEAT-|-REPEAT-|-REPEAT-|-REPEAT-|-REPEAT-|---------------|-REPEAT-|-REPEAT-|-REPEAT-|-----||
D|-0)---------5--3)-|-0)--------------|-PART 1-|-PART 2-|-PART 1-|-PART 2-|-PART 1-|-0)------------|-PART 1-|-PART 2-|-PART 3-|-----||
A|-0)-7)--8)--------|-0)-7)-5)--7-8-7-|--------|--------|--------|--------|--------|-0)-7)---------|--------|--------|--------|-3\--||
E|------------------|-----------------|--------|--------|--------|--------|--------|-------8)--3-5-|--------|--------|--------|-5\--||     
Добавлено: 29.11.2013
Другие материалы по этой песне:
  • Аккорды и текст

Страница создана 18.03.2012
http://primanota.ru/enthroned/walpurgis-night-chords.htm
Привет, Гость.
Предлагаем пройти революционный курс по гитаре.
Подарок от PrimaNota.Ru, забирай!