PrimaNota.ru - самый крупный в мире бесплатный архив песенных текстов, аккордов, табулатур и нот


Enthroned - Vortex Of Confusion - текст песни, таба, видео

Регистрация Запомнить меня
Войти через:  Facebook Google Twitter Vk Yandex Mail.ru

Enthroned - Vortex Of Confusion - текст песни, таба, видео

Печатать
Просмотров: 115
Band: Enthroned
Song: Vortex of confusion
Album: Xes Haereticum
Tab by: Someone(jouki@abv.bg)


Listen to the song for timing.


Riff 1 x2
Guitar 1(clean)       s                                     
e||---------------------------------------------------------------------||
B||-------------------8----------------7-5------------------------------||
G||--7-----9-10-9-7-9----9-10-9-7----------8-7-----5-7-8---7------------||
D||---------------------------------------------------------------------||
A||---------------------------------------------------------------------||
E||---------------------------------------------------------------------||

Riff 2
Guitar 1(distortion) tremolo picking
e||---------------------------------------------------------------------||
B||---------------------------------------------------------------------||
G||---------------------------------------------------------------------||
D||--7----1-----7----1------7----1----7----1----------------------------||
A||--5----3-----5----3------5----3----5----3----------------------------||
E||---------------------------------------------------------------------||

Riff 3 x2
Guitar 1(distortion) tremolo picking
e||---------------------------------------------------------------------||
B||---------------------------------------------------------------------||
G||---------------------------------------------------------------------||
D||-----7-5-8-7-5-7-------------5------7-5-8-7-5-7--5-------------------||
A||--5------------------8--7--8-----5-------------------7-8-10-7--------||
E||-------------------6------------------------------------------8------||

Riff 4 x4
Guitar 1 tremolo picking
e||---------------------------------------------------------------------||
B||---------------------------------------------------------------------||
G||---------------------------------------------------------------------||
D||--7--------------7-----5--2-3--2-------------------------------------||
A||--5--8--5--8--7--5--8--3---------------------------------------------||
E||-----6--3--6--5-----6------------------------------------------------||

Riff 5 x4 
Guitar 1 tremolo picking
e||---------------------------------------------------------------------||
B||---------------------------------------------------------------------||
G||---------------------------------------------------------------------||
D||-------8-7--8----------------8-7--8--10-8--7-------------------------||
A||--5---------6--10-13----5---------6--8--6--5-------------------------||
E||--3------------8--11----3--------------------------------------------||

Riff 6 x2
Guitar 1 tremolo picking
e||---------------------------------------------------------------------||
B||---------------------------------------------------------------------||
G||---------------------------------------------------------------------||
D||---------------------------------------------------------------------||
A||--5--6---9-----5--9---6----------------------------------------------||
E||--3--4---7-----3--7---4----------------------------------------------||

Riff 7 x4   missing solo
Guitar 1 tremolo picking
e||---------------------------------------------------------------------||
B||---------------------------------------------------------------------||
G||---------------------------------------------------------------------||
D||--7---10-9-5---3-5-7---10-9-12--10-12--------------------------------||
A||--5---8--7-3---1-3-5---8--7-8---8--10--------------------------------||
E||---------------------------------------------------------------------||

Riff 5 x6
Guitar 1 tremolo picking
e||---------------------------------------------------------------------||
B||---------------------------------------------------------------------||
G||---------------------------------------------------------------------||
D||-------8-7--8----------------8-7--8--10-8--7-------------------------||
A||--5---------6--10-13----5---------6--8--6--5-------------------------||
E||--3------------8--11----3--------------------------------------------||

Riff 8 x2
Guitar 1 tremolo picking
e||---------------------------------------------------------------------||
B||---------------------------------------------------------------------||
G||---------------------------------------------------------------------||
D||--7-------------------------7------------5---------------------------||
A||--5-----------8-------------5------------3---------------------------||
E||--------------6------------------------------------------------------||

Solo 2
Guitar 1/guitar 2 plays riff 8.
e||---------------------------------------------------------------------||
B||--10---8-10-11--10-8-10----8-6-8-10----8-10-11-15-13-11-11-10-8-6-8--||
G||-----7-------------------7-----------7-----------------------------7~||
D||---------------------------------------------------------------------||
A||---------------------------------------------------------------------||
E||---------------------------------------------------------------------||

Riff 3 x2
Guitar 1 tremolo picking
e||---------------------------------------------------------------------||
B||---------------------------------------------------------------------||
G||---------------------------------------------------------------------||
D||-----7-5-8-7-5-7-------------5------7-5-8-7-5-7--5-------------------||
A||--5------------------8--7--8-----5-------------------7-8-10-7--------||
E||-------------------6------------------------------------------8------||

Riff 8 x2
Guitar 1 
e||---------------------------------------------------------------------||
B||---------------------------------------------------------------------||
G||---------------------------------------------------------------------||
D||--7-------------------------7------------5---------------------------||
A||--5-----------8-------------5------------3---------------------------||
E||--------------6------------------------------------------------------||

Riff 9 x2 tremolo picking
Guitar 1                                     /second time. 
e||---------------------------------------------------------------------||
B||---------------------------------------------------------------------||
G||---------------------------------------------------------------------||
D||-------7-8-7-5----------7-8-7-5-------------------7------------------||
A||----5----------7-8-7--5---------7-8-7-8---/-7-8-7-5------------------||
E||---------------------------------------------------------------------||


For any mistakes you find feel free to mail me.
Добавлено: 27.06.2012
Другие материалы по этой песне:

Страница создана 25.02.2012
http://primanota.ru/enthroned/vortex-of-confusion-chords.htm
Привет, Гость.
Предлагаем пройти революционный курс по гитаре.
Подарок от PrimaNota.Ru, забирай!