PrimaNota.ru - самый крупный в мире бесплатный архив песенных текстов, аккордов, табулатур и нот


Enthroned - Ultimate Horde Fights - текст песни, таба, видео

Регистрация Запомнить меня
Войти через:  Facebook Google Twitter Vk Yandex Mail.ru

Enthroned - Ultimate Horde Fights - текст песни, таба, видео

Печатать
Просмотров: 88
Band- Enthroned
Song- The Ultimate Horde Fights

Intro riff (Riff 1), tremolo picking  Riff 2
e|-----------------------------------||-------------|
B|-----------------------------------||-------------|
G|-----------------------------------||-------------|
D|-----------------------------------||-------------|
A|-0-2-3-2-0-2-353--0-2-3-2-0---020--||-0--1-0---0--|
E|----------------------------3------||--------3----|

Riff 2, play 4 times | 1, 2, 3-----------| 4-----------------|
e|-------------------|-------------------|-------------------|
B|-------------------|-------------------|-------------------|
G|-------------------|-------------------|-------------------|
D|---2h3p2-----------|---2h3p2-----------|---2h3p2---5-------|
A|-0-------3---3-2---|-0-------3-5-3-2-3-|-0-------3---3-2-3-|
E|-----------3-----3-|-------------------|-------------------|

(1:07) Riff 3, tremolo pick these chords, play 2 times
   1   2   3   4   1   2   3   4   1   2   3   4   1   2   3   4
e|---------------------------------------------------------------|
B|---------------------------------------------------------------|
G|---------------------------------------------------------------|
D|-7-------8-------7---8--10---8---7-------8-------7---8---7---5-|
A|-5-------6-------5---6---8---6---5-------6-------5---6---5---3-|
E|---------------------------------------------------------------|

Riff 4
   1   2   3   4   1   2   3   4   1   2   3   4   1   2   3   4
e|----------------------------------------------------------------|
B|----------------------------------------------------------------|
G|----------------------------------------------------------------|
D|-7-------10----------------------7-------10------9-------10--9--|
A|-5--------8------7-------10--9---5--------8------7--------8--7--|
E|-----------------5--------8--7----------------------------------|

Riff 3, play 2 times
Riff 4, play 2 times
(1:51) Riff 2, play 6 times

(2:14) Bridge-thing... tremolo picked, drums and bass out
e|---------------------||--------|
B|---------------------||--------|
G|---------------------||--------|
D|-2---6---------------||--2---6-|
A|-0---4---------------||--0---4-|
E|---------pick slide--||--------|

Tremolo picking, these chords are played the "enthroned-way"... You 
can just play the normal power chords, like this:
e|-----------------|
B|-----------------|
G|-----------------|
D|-2---6---4-2---6-|
A|-0---4---2-0---4-|
E|-----------------|

...but it sounds sounds better like this: (tremolo picking is necessary!)
    1 2 3 4 1 2 3 4 1 2 3 4 1 2 3 4 1 2 3 4 1 2 3 4 1 2 3 4 1 2 3 4 1 2 3 4
e|---------------------------------------------------|
B|---------------------------------------------------|
G|---------------------------------------------------|
D|--2--32-0-2-3-2-0-6--76-4-6-7-6-4-4---5-4-2--3-2-6--76-4-6-7-6-4--|
A|--0--00-0-0-0-0-0-4--44-4-4-4-4-4-2---2-2-0--0-0-4--44-4-4-4-4-4--|
E|---------------------------------------------------|

(3:11), "Enthroned-way", tremolo-picked
e|---------------|
B|---------------|
G|---------------|
D|---------------|
A|---5-----8-----|
E|---3-----6-----|

                           play 2 times                          play 2 times
e|-------------------------------------|-------------------------------------|
B|-------------------------------------|-------------------------------------|
G|-------------------------------------|-------------------------------------|
D|-------------------------------------|-------------------------------------|
A|---5-5-5--5-6-5-3-5---5-5-5--5-6---5-|---8-8-8--8-9-8-6-8---8-8-8--8-9---8-|
E|-3------------------3----------------|-6------------------6----------------|

(4:17) tremolo picking                                              Last chord...
e|-----------------------------------------------------------------||----|
B|-----------------------------------------------------------------||----|
G|-----------------------------------------------------------------||----|
D|-----------------------------------------------------------------||----|
A|-5--65-3-5-6-5-3-5--65-3-5-6-5-3-8--98-6-8-9-8-6-8--98-6-8-9-8-6-||-5\-|
E|-3--33-3-3-3-3-3-3--33-3-3-3-3-3-6--66-6-6-6-6-6-6--66-6-6-6-6-6-||-3\-|
Добавлено: 02.03.2012
Другие материалы по этой песне:

Страница создана 02.03.2012
http://primanota.ru/enthroned/ultimate-horde-fights-chords.htm
Привет, Гость.
Предлагаем пройти революционный курс по гитаре.
Подарок от PrimaNota.Ru, забирай!