PrimaNota.ru - самый крупный в мире бесплатный архив песенных текстов, аккордов, табулатур и нот


Enthroned - Prophecies Of Pagan Fire - таба, видео

Регистрация Запомнить меня
Войти через:  Facebook Google Twitter Vk Yandex Mail.ru

Enthroned - Prophecies Of Pagan Fire - таба, видео

Печатать
Просмотров: 100
Band- Enthroned
Song- Prophecies Of Pagan Fire

sp = speed pick

(fade in first time)
     sp-|        sp-|       x5
|-----------------------------|
|-----------------------------|
|---------------------5-------|
|---7-777-8-5-7-7-777---5-8---|
|-----------------------------|
|-----------------------------|

     sp-|        sp-|       x2
|-----------------------------|
|-----------------------------|
|-----------------------------|
|---------------------5-------|
|---7-777-8-5-7-7-777---5-8---|
|-----------------------------|

     sp-|        sp-|       x2
|-----------------------------|
|-----------------------------|
|---------------------5-------|
|---7-777-8-5-7-7-777---5-8---|
|-----------------------------|
|-----------------------------|

                          x3
|---------------------------|
|---------------------------|
|-------------------5-------|
|---7---7-7---7---7---5-8---|
|-----5---------5-----------|
|---------------------------|

            x1
|-------------|
|-------------|
|-------------|
|---7---7-7---|
|-----5-------|
|-------------|

                                                              x2
|---------------|---------------|---------------|---------------|Guitar 1
|-------0-------|-------0-------|-------0-------|-------0-------|
|---5-5---5-----|---5-5---5-----|---5-5---5-----|---5-5---5-----|
|-----------2---|-----------2---|-----------2---|-----------2---|
|---------------|---------------|---------------|---------------|
|---------------|---------------|---------------|---------------|

|---------------|---------------|---------------|---------------|Guitar 2
|---------------|---------------|---------------|---------------|
|---------------|---------------|---------------|---------------|
|---------------|---------------|---------------|---------------|
|---------------|---------------|---6-----------|---5-----------|
|---0-----------|---0-----------|---------------|---------------|

              x1
|---------------|-------|Guitar 1
|-------0-------|-------|
|---5-5---5-----|---5---|
|-----------2---|-------|
|---------------|-------|
|---------------|-------|

|---------------|-------|Guitar 2
|---------------|-------|
|---------------|-------|
|---------------|-------|
|---------------|-------|
|---0-----------|---0---|

                                                      x1
|-----------------------------|-------------------------|
|---------0-----------0-------|-------0-----------0-----|
|---3---3---3---3---3---3-----|-2---2---2---2---2---2---|
|-----5-------5---5-------5---|---4-------4---4-------4-|
|-----------------------------|-------------------------|
|-----------------------------|-------------------------|

|---------------------------|---------------------------|
|---------0-----------0-----|-------0-----------0-------|
|---1---1---1---1---1---1---|-0---0---0---0---0---0-----|
|-----3-------3---3-------3-|---2-------2---2-------2---|
|---------------------------|---------------------------|
|---------------------------|---------------------------|

                      x1
|-----------------------|
|---------0-------------|
|---1---1---1-----------|
|-----3-------3---------|
|---------------0-------|
|-----------------------|

                                                              x1
|---------------|---------------|---------------|---------------|Guitar 1
|-------0-------|-------0-------|-------0-------|-------0-------|
|---5-5---5-----|---5-5---5-----|---5-5---5-----|---5-5---5-----|
|-----------2---|-----------2---|-----------2---|-----------2---|
|---------------|---------------|---------------|---------------|
|---------------|---------------|---------------|---------------|

|---------------|---------------|---------------|---------------|Guitar 2
|---------------|---------------|---------------|---------------|
|---------------|---------------|---------------|---------------|
|---------------|---------------|---------------|---------------|
|---------------|---------------|---7-----------|---7-----------|
|---5-----------|---5-----------|---------------|---------------|

                                                              x1
|---------------|---------------|---------------|---------------|Guitar 1
|-------0-------|-------0-------|-------0-------|-------0-------|
|---5-5---5-----|---5-5---5-----|---5-5---5-----|---5-5---5-----|
|-----------2---|-----------2---|-----------2---|-----------2---|
|---------------|---------------|---------------|---------------|
|---------------|---------------|---------------|---------------|

|---------------|---------------|---------------|---------------|Guitar 2
|---------------|---------------|---------------|---------------|
|---------------|---------------|---------------|---------------|
|---------------|---------------|---------------|---------------|
|---6-----------|---6-----------|---------------|---------------|
|---------------|---------------|---5-----------|---5-----------|

                                                      x1
|-----------------------------|-------------------------|
|---------0-----------0-------|-------0-----------0-----|
|---3---3---3---3---3---3-----|-2---2---2---2---2---2---|
|-----5-------5---5-------5---|---4-------4---4-------4-|
|-----------------------------|-------------------------|
|-----------------------------|-------------------------|

|---------------------------|---------------------------|
|---------0-----------0-----|-------0-----------0-------|
|---1---1---1---1---1---1---|-0---0---0---0---0---0-----|
|-----3-------3---3-------3-|---2-------2---2-------2---|
|---------------------------|---------------------------|
|---------------------------|---------------------------|

                      x1
|-----------------------|
|---------0-------------|
|---1---1---1-----------|
|-----3-------3---------|
|---------------0-------|
|-----------------------|
Добавлено: 25.02.2012
Другие материалы по этой песне:
  • Аккорды и текст

Страница создана 25.02.2012
http://primanota.ru/enthroned/prophecies-of-pagan-fire-chords.htm
Привет, Гость.
Предлагаем пройти революционный курс по гитаре.
Подарок от PrimaNota.Ru, забирай!