PrimaNota.ru - самый крупный в мире бесплатный архив песенных текстов, аккордов, табулатур и нот


Enthroned - Night Stalker - текст песни, таба, видео

Регистрация Запомнить меня
Войти через:  Facebook Google Twitter Vk Yandex Mail.ru

Enthroned - Night Stalker - текст песни, таба, видео

Печатать
Просмотров: 223
Band- Enthroned
Song- Night Stalker

Tuning: Standard



e|------------------------------------------------------|
B|------------------------------------------------------|
G|------------------------------------------------------|
D|--2----2---4-5----5-5--5------------7----7-5-2--------|
A|--0----0---2-3----3-3--5----5-5-----5----5-3-2--------|
E|-----------------------3----3-3-----------------------|



e|------------------------------------------------------|
B|------------------------------------------------------|
G|------------------------------------------------------|
D|--2----2---4-5----5-5--5------------7----7-5-2--------|
A|--0----0---2-3----3-3--5----5-5-----5----5-3-2--------|
E|-----------------------3----3-3-----------------------|
 |                                                      |
 |                                                      |
e|------------------------------------------------------|
B|------------------------------------------------------|
G|------------------------------------------------------|
D|-------<2~--------------------------7----7-5-4--------|
A|------------------------------------5----5-3-2--------|
E|------------------------------------------------------|



e|------------------------------------------------------| x4
B|------------------------------------------------------|
G|------------------------------------------------------|
D|--2----2---4-5----5-5--5------------7----7-5-2--------|
A|--0----0---2-3----3-3--5----5-5-----5----5-3-2--------|
E|-----------------------3----3-3-----------------------|



e|---------------------------------------------------|
B|---------------------------------------------------|
G|---------------------------------------------------|
D|--2--------5-------------------7-------5--4--------|
A|--0--------3-----------5-------5-------3--2--------|
E|-----------------------3---------------------------|



e|---------------------------------------------------| x2
B|---------------------------------------------------|
G|---------------------------------------------------|
D|--2--------5-------------------7-------5--4--------|
A|--0--------3-----------5-------5-------3--2--------|
E|-----------------------3---------------------------|
 |                                                   |
 |                                                   |
e|---------------------------------------------------|
B|---------------------------------------------------|
G|--2--------5-----------0-------7-------5--4--------|
D|---------------------------------------------------|
A|---------------------------------------------------|
E|---------------------------------------------------|
   //       //          //      //      // //



e|-----------------------------------------------------------------| 
B|-----------------------------------------------------------------|
G|-----------------------------------------------------------------|
D|--2---------------5--------------------------7-------5--4--------|
A|--0---------------3------------------5-------5-------3--2--------|
E|-------------------------------------3---------------------------|
 | //              //                 //      //      // //        |
 |                                                                 |
e|-----------------------------------------------------------------|
B|-----------------------------------------------------------------|
G|--2---4-5-4-5-4---5---5-7-5----------0---------------------------|
D|----------------------------------------------3------2---3-------|
A|-----------------------------------------------------------------|
E|-----------------------------------------------------------------|
                   //                 //       //     //  //



e|-----------------------------------------------------------------| 
B|-----------------------------------------------------------------|
G|-----------------------------------------------------------------|
D|--2---------------5--------------------------7-------5--4--------|
A|--0---------------3------------------5-------5-------3--2--------|
E|-------------------------------------3---------------------------|
 | //              //                 //      //      // //        |
 |                                                                 |
e|-----------------------------------------------------------------|
B|-----------------------------------------------------------------|
G|--2---4-5-4-5-4---5---5-4-5----------5--------7------5---4~------|
D|-----------------------------------------------------------------|
A|-----------------------------------------------------------------|
E|-----------------------------------------------------------------|
                   //                 //       



e|-------------------------------------------| x2
B|-------------------------------------------|
G|--4--5-4-2-4-------------------------------|
D|--2--3-2-0-2----7-5-7----5-4-5--4-5--------|
A|----------------5-3-5----3-2-3--2-3--------|
E|-------------------------------------------|



e|----------------------------------------------------| x6
B|----------------------------------------------------|
G|--4--5--4--2--4-------------------------------------|
D|--2--3--2--0--2----7--5--7----5--4--5---4--5--------|
A|-------------------5--3--5----3--2--3---2--3--------|
E|----------------------------------------------------|
   // // // // //   // // //   // // //  // // 



e|-----------------------------------------| x4
B|-----------------------------------------|
G|-----------------------------------------|
D|--2---------4--------5-------4-----------|
A|--0---------2--------3-------2-----------|
E|-----------------------------------------|
 | //       //       //      //            |
 |                                         |
e|-----------------------------------------|
B|-----------------------------------------|
G|----5-4-2-0---7-6-4-2---8-7-5-4--7-6-4-2-|
D|--2---------4---------5--------4---------|
A|--0---------2---------3--------2---------|
E|-----------------------------------------|



e|----------------------------------------------------| x2
B|----------------------------------------------------|
G|--4--5--4--2--4-------------------------------------|
D|--2--3--2--0--2----7--5--7----5--4--5---4--5--------|
A|-------------------5--3--5----3--2--3---2--3--------|
E|----------------------------------------------------|
   // // // // //   // // //   // // //  // // 


e|----------------------------------------------------| 
B|----------------------------------------------------|
G|--4--5--4--2--4-------------------------------------|
D|--2--3--2--0--2----7--5--7----5--4--5---4--5--------|
A|-------------------5--3--5----3--2--3---2--3--------|
E|----------------------------------------------------|
 | // // // // //   // // //   // // //  // //        |
 |                                                    |
e|----------------------------------------------------|
B|--12----------13---12---13----------15-----13-------|
G|----------------------------------------------------|
D|----------------------------------------------------|
A|----------------------------------------------------|
E|----------------------------------------------------|
   //           //  //   //          //      //


e|----------------------------------------------------| 
B|----------------------------------------------------|
G|--4--5--4--2--4-------------------------------------|
D|--2--3--2--0--2----7--5--7----5--4--5---4--5--------|
A|-------------------5--3--5----3--2--3---2--3--------|
E|----------------------------------------------------|
 | // // // // //   // // //   // // //  // //        |
 |                                                    |
e|----------------------------------------------------|
B|--12-13--12-13-12--10---------8---------7--8--------|
G|----------------------------------------------------|
D|----------------------------------------------------|
A|----------------------------------------------------|
E|----------------------------------------------------|
   // //   // // //  //        //        // //


e|----------------------------------------------------| 
B|----------------------------------------------------|
G|--4--5--4--2--4-------------------------------------|
D|--2--3--2--0--2----7--5--7----5--4--5---4--5--------|
A|-------------------5--3--5----3--2--3---2--3--------|
E|----------------------------------------------------|
 | // // // // //   // // //   // // //  // //        |
 |                                                    |
e|----------------------------------------------------|
B|--12--12-13-12-13--13---------15--------------------|
G|----------------------------------------------------|
D|----------------------------------------------------|
A|----------------------------------------------------|
E|----------------------------------------------------|
   //  // // // //  //         //


e|----------------------------------------------------| 
B|----------------------------------------------------|
G|--4--5--4--2--4-------------------------------------|
D|--2--3--2--0--2----7--5--7----5--4--5---4--5--------|
A|-------------------5--3--5----3--2--3---2--3--------|
E|----------------------------------------------------|
 | // // // // //   // // //   // // //  // //        |
 |                                                    |
e|--------15------------15-----15b~--15b~-------------|
B|--17--------------17-----15-------------------------|
G|----------------------------------------------------|
D|----------------------------------------------------|
A|----------------------------------------------------|
E|----------------------------------------------------|
   //    //        //  // //



e|-----------------------------------------| x4
B|-----------------------------------------|
G|-----------------------------------------|
D|--2---------4--------5-------4-----------|
A|--0---------2--------3-------2-----------|
E|-----------------------------------------|
 | //       //       //      //            |
 |                                         |
e|-----------------------------------------|
B|-----------------------------------------|
G|----5-4-2-0---7-6-4-2---8-7-5-4--7-6-4-2-|
D|--2---------4---------5--------4---------|
A|--0---------2---------3--------2---------|
E|-----------------------------------------|




e|-----------------------------------------------------------------| x5
B|-----------------------------------------------------------------|
G|-----------------------------------------------------------------|
D|--2---------------5--------------------------7-------5--4--------|
A|--0---------------3------------------5-------5-------3--2--------|
E|-------------------------------------3---------------------------|
   //              //                 //      //      // //        


e|------------------------------------------------------------------| 
B|------------------------------------------------------------------|
G|------------------------------------------------------------------|
D|--2---------------5--------------------------7-------5--4--2------|
A|--0---------------3------------------5-------5-------3--2--0------|
E|-------------------------------------3----------------------------|
   //              //                 //   


Key:

< = Volume Swell
~ = Virbrato
// = Tremolo Pick
b = Bend


Добавлено: 15.05.2012
Другие материалы по этой песне:
  • Аккорды и текст

Страница создана 12.04.2012
http://primanota.ru/enthroned/night-stalker-chords.htm
Привет, Гость.
Предлагаем пройти революционный курс по гитаре.
Подарок от PrimaNota.Ru, забирай!