PrimaNota.ru - самый крупный в мире бесплатный архив песенных текстов, аккордов, табулатур и нот


Enthroned - Evil Church - текст песни, таба, бас-таба, видео

Регистрация Запомнить меня
Войти через:  Facebook Google Twitter Vk Yandex Mail.ru

Enthroned - Evil Church - текст песни, таба, бас-таба, видео

Печатать
Просмотров: 189
Band- Enthroned
Song- Evil Church

Intro/Riff 1 - Gtr.1 (clean) play 2 times
e|--------------------------------------|
B|--------------------------------------|
G|o------------2-----------------------o|
D|o---2-4-5-4----5-4----2-4-5-4-5-4-2--o|
A|--------------------------------------|
E|--0-----------------0-----------------|

(0:08) Riff 1a - Gtr.1 (dist.)                                    play 3 times
e|----------------------------------------------------------------------------|
B|----------------------------------------------------------------------------|
G|o------------2------------------------------------2------------------------o|
D|o---2-4-5-4----5-4~----2-4-5-4-5-4-2~----2-4-5-4----5-4~----2-4-5-4-5-4-2~-o|
A|----------------------------------------------------------------------------|
E|--0------------------0-----------------0------------------0-----------------|
 | Riff 1b - Gtr.2 (dist.)                                                    |
e|----------------------------------------------------------------------------|
B|----------------------------------------------------------------------------|
G|o--------------------------------------------------------------------------o|
D|o-9----------------4-5---------7-------9----------------4-5--------5-------o|
A|--7----------------2-3---------5-------7----------------2-3--------2--------|
E|----------------------------------------------------------------------------|

(0:31) Riff 1, w/tremolo picking, timing is correct. Play 4 times
  1e2e3e4e|1e2e3e4e|1e2e3e4 e |1e2e3e4e|1e2e3e4e
  E5      |E5      |D5    E5D5|F5      |F5
e|----------------------------------------------------------------------------|
B|----------------------------------------------------------------------------|
G|----------------------------------------------------------------------------|
D|---------9--------7-----9-7--10-------10------------------------------------|
A|2--------7--------5-----7-5--8--------8-------------------------------------|
E|0---------------------------------------------------------------------------|

"Enter the infernal corridors of the unlight,
walking through the path haunted by ghouls and wolves.
Rising from the dead and crushing their tombs your body starts to shake with
fear, you feel the demons clawing at your skin trying to pull you into their
crypt."


(0:59) Riff 2, w/tremolo picking. Play 2 times
  1e2e3e4e|1e2e3e4e|1e2e3e4e|1e2e3e4 e|1e2e3e4e|1e2e3e4 e|1e2e3e4e|1e2e3e4e
  A5      |        |F5      |      E5 |D5      |      E5 |F5      |G5
e|----------------------------------------------------------------------------|
B|----------------------------------------------------------------------------|
G|----------------------------------------------------------------------------|
D|2-----------------10-------------9---7--------------9---10-------12---------|
A|0-----------------8--------------7---5--------------7---8--------10---------|
E|----------------------------------------------------------------------------|

"Now, walk towards the table of hell, and worship the call of Ninnagesh the
mighty black priest, as you're approaching closer to the altar,
raise your hands and do the sign of the horns."


(1:20) Riff 3, halftime feel, no tremolo picking.
  B5 F#5 C#5 G#5  
e|------------------|
B|------------------|
G|------------------|
D|4-------6---------|
A|2---4---4---6-----|
E|----2-------4-----|

"Take your dirk to cut your throat, blood spills in the chalice you bring and
you agonize with joy in the middle of the great inflammed Pentagram.
Succumb for hell, succumb for the darkness, succumb for the evil and give
your life to our lord Satan.
The undeads starts to drink your damned blood under the morbid breath of the
great organ pipes, your soul is now condemned to live in the domination of
Seth to deny your weak god and take the power of evil."

(1:59) Kickass Riff 4, w/tremolo picking. Play 2 times
                             1, 3______________________| 2______| 4______|
e|--------------------------|--------------------------|--------|--------|
B|--------------------------|--------------------------|--------|--------|
G|o-------------------------|-------------------------o|-------o|-7-5-4-o|
D|o-------------------------|-------------------------o|-------o|-------o|
A|--7-7-7-5-7-7-8-8-7-7-5-5-|-3-3-3-2-3-3-5-5-3-3-2-2--|-5-3-2--|--------|
E|--------------------------|--------------------------|--------|--------|

(chorus)
"Evil Church"

(2:34) Riff 2, 4 times (3rd and 4rd time w/lead Nebiros)

"Fight, kill and torture without mercy
forever in honour to sin.
Raise high the swords of hate, run to fight the light.
conqueror of the earthly grounds."

(3:17) Riff 5, w/tremolo picking. Play 4 times
  1e2e3e4e|1e2e3e4e|1e2e3e4e|1e2e3e4e|1e2e3e4e|1e2e3e4e|1e2e3e4e|1e2e3e4e
  E5      |        |C5               |A5               |B5      |G5  F#5 
e|----------------------------------------------------------------------------|
B|----------------------------------------------------------------------------|
G|----------------------------------------------------------------------------|
D|------------------5-----------------2-----------------4---------------------|
A|2-----------------3-----------------0-----------------2--------5---4--------|
E|0--------------------------------------------------------------3---2--------|

"Oooohh tormentor of the beast you've broken your chain made of christian lies,
you gave your faith to Satan, heard every sabbaths of the mighty priest,
sacrificed yourself upon the altar of the evil church and finally became a
faithful son of our master!"

"In your presence, the weak mortals stand in fear, you're the black tormentor
next to the throne of chaos.
Join us, we are the agitators and invite the mothers to sacrifice their new
born children."

(4:00) Riff 1, 2 times
"In the basin of the reverend of hell, the innocent blood flows..."

(4:13) Bass plays riff 1
(4:19) Riff 1, 2 times
"Welcome to the evil church!"
(chorus)
"Evil Church"
(4:33) Final chord low E5 ("Church!")
e|---|
B|---|
G|---|
D|---|
A|-2-|
E|-0-|
Добавлено: 06.06.2012
Другие материалы по этой песне:

Страница создана 06.03.2012
http://primanota.ru/enthroned/evil-church-chords.htm
Привет, Гость.
Предлагаем пройти революционный курс по гитаре.
Подарок от PrimaNota.Ru, забирай!