PrimaNota.ru - самый крупный в мире бесплатный архив песенных текстов, аккордов, табулатур и нот


Enthroned - Deny The Holy Book Of Lies - аккорды и текст, таба, видео

Регистрация Запомнить меня
Войти через:  Facebook Google Twitter Vk Yandex Mail.ru

Enthroned - Deny The Holy Book Of Lies - аккорды и текст, таба, видео

Печатать
Просмотров: 121
Deny The Holy Book Of Lies
Enthroned
		   "Deny The Holy Book Of Lies" as performed by Enthroned on
 their 1995 album "Prophecies Of Pagan Fire"
_______________________________________________________
Transcribed by Lord Upir (upir@gmx.net) on 14 July 2000

Normal tuning (EADGBe)

Riff 1       play this part 2 times, then play this part 2 times
e|---------------------------------|---------------------------------|
B|---------------------------------|---------------------------------|
G|---------------------------------|---------------------------------|
D|-2-2-2-2-2-2-2-2-3-3-3-3-3-3-3-3-|-3-3-3-3-3-3-3-3-4-4-4-4-4-4-4-4-|
A|-0-0-0-0-0-0-0-0-0-0-0-0-0-0-0-0-|-1-1-1-1-1-1-1-1-1-1-1-1-1-1-1-1-|
E|---------------------------------|---------------------------------|

(0:57) Riff 1a, same as riff 1 but with different timing:
e|-------------------------|-------------------------|
B|-------------------------|-------------------------|
G|-------------------------|-------------------------|
D|-2-222-2-222-3-333-3-333-|-3-333-3-333-4-444-4-444-|
A|-0-000-0-000-0-000-0-000-|-1-111-1-111-1-111-1-111-|
E|-------------------------|-------------------------|

(2:22) Riff 2, tremolo picking, timing is not perfect...
e|--------------repeat|---------------repeat|
B|--------------------|---------------------|
G|--------------------|---------------------|
D|-----10-9-7---5\4/5-|---5-----7-----10--9-|
A|-0--0-8-7-5--03\2/3-|-0-3---0-5---0--8--7-|
E|--------------------|---------------------|
"Judas, the only one who hasn't lied to us
You remain faithful by showing, the world hypocrite and merciless
in the name of the demons and the powers of hell,
Christians I damn you
making the sign of pentagram

I do call you great Master Satan
from the bottom of darkness, the strengths breakout
I feel them ready to hit,
I made serious offences, and lived like a sinner..."

Riff 3
e|----------------------------------------------|
B|------------3---------------------------------|
G|----4h5-4-4---5-4-2---------------------------|
D|-2------------------5-4-2h4----5h6-5----4h5-4-|
A|-----------------------------3--------2-------|
E|----------------------------------------------|
"Ave Satan... ave, ave, ave...
Ave Satan..."

Riff 4, tremolo picking
e|-------------------------------|
B|-------------------------------|
G|-------------5-7-4---2---------|
D|-2-----5---------------5-4-5-4-|
A|-------------------------------|
E|-------------------------------|
"To satisfy, my love for you
Oôôh Satan's servant !!!
I grave my soul
I adjured the blood, that flows in my veins..."

Riff 5, tremolo picking (w/solo)
e|----------------------------------------|
B|----------------------------------------|
G|----------------------------------------|
D|-9---10-9---7---4-5---9---10-9---7--10--|
A|-7----8-7---5---2-3---7----8-7---5---8--|
E|----------------------------------------|
"And shall continue to an immortal life
life in your name"

High E5 power chord w/ "life..."     
Добавлено: 07.06.2013
Другие материалы по этой песне:

Страница создана 09.03.2012
http://primanota.ru/enthroned/deny-the-holy-book-of-lies-chords.htm
Привет, Гость.
Предлагаем пройти революционный курс по гитаре.
Подарок от PrimaNota.Ru, забирай!