PrimaNota.ru - самый крупный в мире бесплатный архив песенных текстов, аккордов, табулатур и нот


Enthroned - By Dark Glorious Thoughts - текст песни, таба, видео

Регистрация Запомнить меня
Войти через:  Facebook Google Twitter Vk Yandex Mail.ru

Enthroned - By Dark Glorious Thoughts - текст песни, таба, видео

Печатать
Просмотров: 124
Band- Enthroned
Song- By dark Glorious Thoughts

Riff1:
|--------------------------------------------------------------------|
|--------------------------------------------------------------------|
|--------------------------------------------------------------------|
|--4------------5-----2-------4--5--4-------------5--2---------7--5--|Gtr1
|--2------------3-----0-------2--3--2-------------3--0---------5--3--|
|--------------------------------------------------------------------|

|--------------------------------------------------------------------|
|--------------------------------------------------------------------|
|--------------------------------------------------------------------|
|--4-4-4-4-4-4--5-5-5-2-2-2--4-4-5-5-4-4-4-4-4-4--5-5-5-2-2-2---7-5--|Grt2
|--2-2-2-2-2-2--3-3-3-0-0-0--2-2-3-3-2-2-2-2-2-2--3-3-3-0-0-0---5-3--|
|--------------------------------------------------------------------|

Riff2:
|--------------------------------------------------------------------|
|--------------------------------------------------------------------|
|--------------------------------------------------------------------|
|----4-5-4---7--5-4-5-----10-9-7----5-4-5-7--------------------------|
|--2-------------------3----------5----------------------------------|
|--------------------------------------------------------------------|

Riff3:
|--------------------------------------------------------------------|
|--------------------------------------------------------------------|
|--------------------------------------------------------------------|
|----4----7-9----4-5---7-5-------------------------------------------|
|--2-2--2-5-7--2-2-3---5-3-------------------------------------------|
|--0----0------0-----------------------------------------------------|

Fill1:
|--------------------------------------------------------------------|
|--------------------------------------------------------------------|
|--------------------------------------------------------------------|
|------------6-6-6-6-6-6-6-6-----------------------------------------|
|---2--------4-4-4-4-4-4-4-4-----------------------------------------|
|---0----------------------------------------------------------------|

Riff4:
|--------------------------------------------------------------------|
|--------------------------------------------------------------------|
|--------------------------------------------------------------------|
|--6-6-6-6-6-9-9-9-9-9-9-11-11-11-11-11---14-13-9---6-6-6-6-4-4-4-4--|
|--4-4-4-4-4-7-7-7-7-7-7-9--9--9--9--9----12-11-7---4-4-4-4-2-2-2-2--|
|--------------------------------------------------------------------|

Fill2:
|--------------------------------------------------------------------|
|--------------------------------------------------------------------|
|--------------------------------------------------------------------|
|--6-6-6-6-6-6-6-6--4-4-4-4-4----------------------------------------|
|--4-4-4-4-4-4-4-4--2-2-2-2-2----------------------------------------|
|--------------------------------------------------------------------|

Riff5:
|--------------------------------------------------------------------|
|--------------------------------------------------------------------|
|--------------------------------------------------------------------|
|--6---6-6--6-4-2--2-2--2-2-4--4-9-8-6--4-4-4-4----------------------|
|--4---4-4--4-2-0--0-0--0-0-2--2-7-6-4--2-2-2-2----------------------|
|--------------------------------------------------------------------|

Solo:
|--------------------------------------------------------------------|
|--------------------------------------------------------------------|
|--/6~~~-6-6/9~~--8-6-6/9~~--9-9/11~~--9-8-4~~--4-4/9-8-4-6--4-4-4-4-|
|--------------------------------------------------------------------|
|--------------------------------------------------------------------|
|--------------------------------------------------------------------|

|--------------------------------------------------------------------|
|--10P9-10P9~~--9-9/10-9-7-7/10~~~--10-10/12~~--10-9-7~~--9-10-9~~---|
|--------------------------------------------------------------------|
|--------------------------------------------------------------------|
|--------------------------------------------------------------------|
|--------------------------------------------------------------------|

|--------------------------------------------------------------------|
|--7-9~~---9-9/10-9-7-7/10~~~--10-10/12~~--10-9-7~~--9-10--9tr10-----|
|--------------------------------------------------------------------|
|--------------------------------------------------------------------|
|--------------------------------------------------------------------|
|--------------------------------------------------------------------|

|---------------------------------------------------------------------|
|--12p10p9-12p10p9-12p10p9-12p10p9-10/12--10-9-10~-10-9-7--9-10-9tr10-|
|---------------------------------------------------------------------|
|---------------------------------------------------------------------|
|---------------------------------------------------------------------|
|---------------------------------------------------------------------|

Riff6:
|--------------------------------------------------------------------|
|--------------------------------------------------------------------|
|--------------------------------------------------------------------|
|--2---------9--------2-----9-10-9--2----9-----5-7-9-5---------------|Gtr1
|--0---------7--------0-----7-8--7--0----7-----3-5-7-3---------------|
|--------------------------------------------------------------------|

|--------------------------------------------------------------------|
|--------------------------------------------------------------------|
|--------------------------------------------------------------------|
|--2-2-2-2-2-9-9-9-9--2-2-2-9-10-9--2-2-2-9-9--5-7-9-5---------------|Grt2
|--0-0-0-0-0-7-7-7-7--0-0-0-7-8--7--0-0-0-7-7--3-5-7-3---------------|
|--------------------------------------------------------------------|

Riff7:
|--------------------------------------------------------------------|
|--------------------------------------------------------------------|
|--------------------------------------------------------------------|
|--10-10-10-11-10---12-12-12-13-12---7-7-7-8-7-----------------------|
|--8--8--8--8--8----10-10-10-10-10---5-5-5-5-5-----------------------|
|--------------------------------------------------------------------|

Fill3:
|--------------------------------------------------------------------|
|--------------------------------------------------------------------|
|--------------------------------------------------------------------|
|--5-5-5-5-----------------------------------------------------------|
|--3-3-3-3-----------------------------------------------------------|
|--------------------------------------------------------------------|

Riff8:
|--------------------------------------------------------------------|
|--------------------------------------------------------------------|
|--------------------------------------------------------------------|
|--7-7-7-8-8-8---5-5--7-8-7-7-7-7-8-8-8---5-5--10-8-7----------------|
|--5-5-5-6-6-6---3-3--5-6-5-5-5-5-6-6-6---3-3--8--6-5----------------|
|--------------------------------------------------------------------|

Riff9:
|--------------------------------------------------------------------|
|--------------------------------------------------------------------|
|--------------------------------------------------------------------|
|----7-8-7--10--8-7-8----13-12-10----8-7-8-10------------------------|
|--5-------------------6-----------8---------------------------------|
|--------------------------------------------------------------------|
Добавлено: 02.07.2012
Другие материалы по этой песне:
  • Аккорды и текст

Страница создана 04.05.2012
http://primanota.ru/enthroned/by-dark-glorious-thoughts-chords.htm
Привет, Гость.
Предлагаем пройти революционный курс по гитаре.
Подарок от PrimaNota.Ru, забирай!