PrimaNota.ru - самый крупный в мире бесплатный архив песенных текстов, аккордов, табулатур и нот


Enter The Haggis - Year Of The Rat - таба, видео

Регистрация Запомнить меня
Войти через:  Facebook Google Twitter Vk Yandex Mail.ru

Enter The Haggis - Year Of The Rat - таба, видео

Печатать
Просмотров: 36
-------------------------------------------------------------------------------
                             Year of the Rat - Enter the Haggis
-------------------------------------------------------------------------------
Tabbed by:GarrettPaquette

Tuning:Standard

The timing for this song is something like 3/4
The E chord is easily played by barring the 7th fret, with your 2nd and 3rd fingers
on 9, and pinky on 10 (kinda mute the B string with your 3rd finger). Arrows show strumming

Intro/Verse    
    E                                  C                A                              
    ↓ ↓↑↓↑  ↓ ↓↑↓↑   ↓ ↓↑↓↑  ↓ ↓↑↓↑    ↓ ↓↑↓↑  ↓ ↓↑↓↑   ↓ ↓↑↓↑
e|--10------7--------10------7--------------------------5----------|
B|-------------------------------------5----------------5----------|
G|--9-------9--------9-------9---------5----------------6----------| X5
D|--9-------9--------9-------9---------5----------------7----------|
A|--7-------7--------7-------7---------3----------------7----------|
E|------------------------------------------------------5----------|

PreChorus 

e|------------------------------------|
B|------7-------7-------7-------7-----|
G|------------------------------------| X3, fourth time only play the 9 and 7 part
D|--------9-------9-------9-------9---|
A|---9-------7-------5-------7--------|
E|------------------------------------|

Play the intro once, then the chorus is the same as the intro.

PreChorus

I think the bridge is  C  D  E     A      E  X2

Play intro twice, then end with the PreChorus


************************************

| /   slide up
| \   slide down
| h   hammer-on
| p   pull-off
| ~   vibrato
| +   harmonic
| x   Mute note
| b   Bend
| pb  Pre-bend
| br  Bend release
| pbr Pre-bend release
| brb Bend release bend

************************************
Добавлено: 24.05.2016
Другие материалы по этой песне:
  • Аккорды и текст

Страница создана 24.05.2016
http://primanota.ru/enter-the-haggis/year-of-rat-chords.htm
Привет, Гость.
Предлагаем пройти революционный курс по гитаре.
Подарок от PrimaNota.Ru, забирай!