PrimaNota.ru - самый крупный в мире бесплатный архив песенных текстов, аккордов, табулатур и нот


Enter The Haggis - Mrs Elliott - таба, видео

Регистрация Запомнить меня
Войти через:  Facebook Google Twitter Vk Yandex Mail.ru

Enter The Haggis - Mrs Elliott - таба, видео

Печатать
Просмотров: 42
-------------------------------------------------------------------------------
                             Mrs. Elliott - Enter The Haggis
-------------------------------------------------------------------------------
Tabbed by:GarrettPaquette

Tuning: Standard
 
Strumming: ↓   ↓↑      ↓    ↓↑    ↓    ↓↑    ↓    ↓↑

           B          G          D          A
  e|--------------------------------------------------------|
  B|--------------------------------------------------------|
  G|------------------------------7---7-7-------------------|
  D|-------9---9-9-----5---5-5----7---5-7----7---7-7--------|
  A|-------9---9-9-----5---3-5----5---5-5----7---7-7--------|
  E|-------7---7-7-----3---3-3---------------5---5-5--------|

Добавлено: 24.05.2016
Вам также может быть интересно:
Другие материалы по этой песне:
  • Аккорды и текст

Страница создана 24.05.2016
http://primanota.ru/enter-the-haggis/mrs-elliott-chords.htm
Привет, Гость.
Предлагаем пройти революционный курс по гитаре.
Подарок от PrimaNota.Ru, забирай!