PrimaNota.ru - самый крупный в мире бесплатный архив песенных текстов, аккордов, табулатур и нот


Enter Shikari - We Can Breathe In Space They Just Dont Want Us To Escape - таба, видео

Регистрация Запомнить меня
Войти через:  Facebook Google Twitter Vk Yandex Mail.ru

Enter Shikari - We Can Breathe In Space They Just Dont Want Us To Escape - таба, видео

Печатать
Просмотров: 104
Intro and main riff (sharp)

D#--------------------------------------------------|
A#--------------------------------------------------|
F#--------------------------------------------------|
C#--3-3-3-3-3--1-1-1-1-1---8-8-8-8-8--8-8-8-8-8-----|x4
G#--3-3-3-3-3--1-1-1-1-1---8-8-8-8-8--8-8-8-8-8-----|
C#--3-3-3-3-3--1-1-1-1-1---8-8-8-8-8--8-8-8-8-8-----|

on the 2nd and 4th time slide down from 8 to the 3 again 

D#------------------------------------------|
A#------------------------------------------|
F#------------------------------------------|
C#--3-3-3--3-3----1-1-1--1-1----------------|
G#--3-3-3--3-3----1-1-1--1-1----------------|
C#--3-3-3--3-3----1-1-1--1-1----------------|


Build up and tapping (frets five six and eight with right hand)

D#------------------------------------------|
A#------------------------------------------|
F#--7-7-7--7-7-7-7---9-9-9--9-9-9-9---------|
C#--x-x-x--x-x-x-x---x-x-x--x-x-x-x---------|
G#--5-5-5--5-5-5-5---7-7-7--7-7-7-7---------|
C#------------------------------------------|
sometimes two 10s on the tapping
D#---------------------------------|
A#--10p6—11p6h8—13p6—11p6h8—10p6h8-|
F#---------------------------------|
C#---------------------------------|
G#---------------------------------|
C#---------------------------------|

D#-----------------------------|
A#-----------------------------|
F#-----------------------------|
C#--8-7-5-5-5-5-5--------------|
G#--8-7-5-5-5-5-5--------------|
C#--8-7-5-5-5-5-5--------------|

Now Main Riff+
occasionally has these riffs stuck in      (or five frets up on the a string)
                                                 here 
D#-----------------------       D#---5p1--6p1--5p1h3---------|
A#-----------------------       A#---------------------------|
F#-----------------------       F#---------------------------|
C#---5-7-5---------------       C#---------------------------|
G#---------8-------------       G#---------------------------|
C#-----------------------       C#---------------------------|

and watch out for when they miss out for example the chord on the 3rd fret and go 
to 1
Then before the breakdown
D#------------------------------------------------------------------------|
A#------------------------------------------------------------------------|
F#------------------------------------------------------------------------|
C#--3~--1~---8-8-8--8-8---8-8-8--8-8---10-10-10--10-10--10-10-10--10-10---|
G#--3~--1~---8-8-8--8-8---8-8-8--8-8---10-10-10--10-10--10-10-10--10-10---|
C#--3~--1~---8-8-8--8-8---8-8-8--8-8---10-10-10--10-10--10-10-10--10-10---|

D#---------------------------------------------|
A#---------------------------------------------|
F#---------------- ----------------------------|
C#8-8-8--8-8------7*BEND UP------------0~------|
G#8-8-8--8-8---------------------------0~------|
C#8-8-8--8-8---------------------------0~------|


Breakdown

D#------------------------------------|
A#------------------------------------|
F#------------------------------------|
C#--0-0-0--0-0-0-0--X4----------------|
G#--0-0-0--0-0-0-0--------------------|
C#--0-0-0--0-0-0-0--------------------|
    . . .  . . . .
Tapping Riff with build up chords from before (watch out for the two 10 tapping bit)

Then this again
D#-----------------------------|
A#-----------------------------|
F#-----------------------------|
C#--8-7-5-5-5-5-5--------------|
G#--8-7-5-5-5-5-5--------------|
C#--8-7-5-5-5-5-5--------------|

Then Main Riff

Then before the breakdown
D#------------------------------------------------------------------------|
A#------------------------------------------------------------------------|
F#------------------------------------------------------------------------|
C#--3~--1~---8-8-8--8-8---8-8-8--8-8---10-10-10--10-10--10-10-10--10-10---|
G#--3~--1~---8-8-8--8-8---8-8-8--8-8---10-10-10--10-10--10-10-10--10-10---|
C#--3~--1~---8-8-8--8-8---8-8-8--8-8---10-10-10--10-10--10-10-10--10-10---|

D#---------------------------------------|
A#---------------------------------------|
F#---------------------------------------|
C#8-8-8--8-8-----7* bend up---------0~---|
G#8-8-8--8-8------------------------0~---|
C#8-8-8--8-8------------------------0~---|

Breakdown

D#------------------------------| Let chords ring, play till finish
A#------------------------------|
F#------------------------------|
C#---8~---10~---0~--------------|
G#---8~---10~---0~--------------|
C#---8~---10~---0~--------------|


Cheers:) thats near perfect i think:)
Добавлено: 21.05.2012
Другие материалы по этой песне:

Страница создана 21.05.2012
http://primanota.ru/enter-shikari/we-can-breathe-in-space-they-just-dont-want-us-to-escape-chords.htm
Привет, Гость.
Предлагаем пройти революционный курс по гитаре.
Подарок от PrimaNota.Ru, забирай!