PrimaNota.ru - самый крупный в мире бесплатный архив песенных текстов, аккордов, табулатур и нот


Enter Shikari - The Feast - текст песни, таба, бас-таба, видео

Регистрация Запомнить меня
Войти через:  Facebook Google Twitter Vk Yandex Mail.ru

Enter Shikari - The Feast - текст песни, таба, бас-таба, видео

Печатать
Просмотров: 150
[NOTE: Okay, this is tabbed directly FROM the band, so it has to be right.  It was
on the Band's official forum at www.entershikari.com.  Enjoy!]

Intro

d#|--------|----------------------------------------------------------|
A#|--------|----------------------------------------------------------|
F#|->>pick-|-5>7-7>8<7-7>10-10-10>12-12-12----------9--9--9--9--9--9--|
C#|-scrape-|-5>7-7>8<7-7>10-10-10>12-12-12-88-888-8-10-10-10-10-10-10-| x2
G#|--------|-3>5-5>6<5-5>8--8--8 >10-10-10-88-888-8-7--7--7--8--8--8--|
C#|--------|-------------------------------88-888-8-------------------|

|-----------------------------------------------------------|
|-------11-11-------------------10-10-----------8--8--------|
|-------14-14-------------------10-10-----------10-10-------|
|-00000-------00--33--55--88888-------88--10-10-------10-10-| x2
|-00000-------00--33--55--88888-------88--10-10-------10-10-|
|-00000-------00--33--55--88888-------88--10-10-------10-10-|

Chorus

|---------------------------------------------------------|
|---------------------------------------------------------|
|-77-7-7-7-7>10-10-10>12-12-12----------9--9--9--9--9--9--|
|-77-7-7-7-7>10-10-10>12-12-12-88-8-8-8-10-10-10-10-10-10-| x4
|-55-5-5-5-5>8--8--8 >10-10-10-88-8-8-8-7--7--7--8--8--8--|
|------------------------------88-8-8-8-------------------|

Circus break down

|-----------------|
|-----------------|
|-----------------|
|-----------------| x10
|-0---1---0---0---|
|-0---3---2---1---|

|-------------------|
|-------------------|
|-------------------|
|-00000--00--00--00-| x4
|-00000--00--00--00-|
|-00000--00--00--00-|

GO!

|-------------------------------------------------------| |---------------|
|-------11-11----------------10-10----------8--8--------| |---------------|
|-------14-14----------------10-10----------10-10-------| |---------------|
|-00000-------00-33-55-88888-------88-10-10-------10-10-| x2 |-0--let-----| x4
|-00000-------00-33-55-88888-------88-10-10-------10-10-| |-0--ring-------|
|-00000-------00-33-55-88888-------88-10-10-------10-10-| |-0-------------|

Chorus

|---------------------------------------------------------|
|---------------------------------------------------------|
|-77-7-7-7-7>10-10-10>12-12-12----------9--9--9--9--9--9--|
|-77-7-7-7-7>10-10-10>12-12-12-88-8-8-8-10-10-10-10-10-10-| x5
|-55-5-5-5-5>8--8--8 >10-10-10-88-8-8-8-7--7--7--8--8--8--|
|------------------------------88-8-8-8-------------------|


|------------------------------------------|
|------------------------------------------|
|-77-7-7-7-7>10-10-10>12-12-12----------9--|
|-77-7-7-7-7>10-10-10>12-12-12-88-8-8-8-10-|
|-55-5-5-5-5>8--8--8 >10-10-10-88-8-8-8-7--|
|------------------------------88-8-8-8----|

end bit
(* means pinch)

|-------------------------------------------------|
|------------------11-10*------------------11-10*-|
|---------------10----------------------10--------|
|-0-0-0-0-12-12-----------0-0-0-0-12-12-----------|
|-0-0-0-0-----------------0-0-0-0-----------------|
|-0-0-0-0-----------------0-0-0-0-----------------|

|--------------------------------------------|
|----------------------------------------10*-|
|-----------------------------------10-9-----|
|-0-0-0-0-0-10-8-7-8-8-8-8-10-12-12----------|
|-0-0-0-0-0--------8-8-8-8-10----------------|
|-0-0-0-0-0--------8-8-8-8-10----------------|

|-------------------------------------------------|
|------------------11-10*------------------11-10*-|
|---------------10----------------------10--------|
|-0-0-0-0-12-12-----------0-0-0-0-12-12-----------|
|-0-0-0-0-----------------0-0-0-0-----------------|
|-0-0-0-0-----------------0-0-0-0-----------------|

|-----------------------------|
|-----------------------------|
|-----------------------------|
|-0-0-0-0-0-10-8-7-8-8-8-8-10-|
|-0-0-0-0-0--------8-8-8-8-10-|
|-0-0-0-0-0--------8-8-8-8-10-|
Добавлено: 13.08.2013
Другие материалы по этой песне:

Страница создана 05.03.2012
http://primanota.ru/enter-shikari/the-feast-chords.htm
Привет, Гость.
Предлагаем пройти революционный курс по гитаре.
Подарок от PrimaNota.Ru, забирай!