PrimaNota.ru - самый крупный в мире бесплатный архив песенных текстов, аккордов, табулатур и нот


Enter Shikari - The Bearer Of Bad News - текст песни, таба, бас-таба, видео

Регистрация Запомнить меня
Войти через:  Facebook Google Twitter Vk Yandex Mail.ru

Enter Shikari - The Bearer Of Bad News - текст песни, таба, бас-таба, видео

Печатать
Просмотров: 136
----------------------------------------------------------------------------
                     The Bearer Of Bad News - ENTER SHIKARI
----------------------------------------------------------------------------
Tabbed by: myspace.com/igaveyousins
Email: itateeverybody@live.co.uk

Tuning: Drop B



Intro/Verse
e|------------| play however many times it plays it in the song.
B|------------|
G|-9-12-7-9---|
D|-9-12-7-9---|
A|-7-10-5-7---|
E|------------|

Chorus
e|-----------------------------------------|
B|-----------------------------------------|
G|-----------------------------------------|
D|-xx-22-x-5-x-55-x-7-x-77-x-10-x-1010-x---|
A|-xx-22-x-5-x-55-x-7-x-77-x-10-x-1010-x---|
E|-xx-22-x-5-x-55-x-7-x-77-x-10-x-1010-x---|

e|-------------------------------------------------------------------------|
B|-------------------------------------------------------------------------|
G|-------------------------------------------------------------------------|
D|-2-x-22-x-5-x-55-x-7-x-77-x-10101010101010101010101010101010-------------|
A|-2-x-22-x-5-x-55-x-7-x-77-x-10101010101010101010101010101010-------------|
E|-2-x-22-x-5-x-55-x-7-x-77-x-10101010101010101010101010101010-------------|

Bridge
e|--------------------------------------------|
B|--------------------------------------------|
G|-55/99-5/99-5/12121212-77-7-7-7-77-7-9999---|
D|-55/99-5/99-5/12121212-77-7-7-7-77-7-9999---|
A|-33/77-3/77-3/10101010-55-5-5-5-55-5-7777---|
E|--------------------------------------------|

e|-----------------------------------|
B|-----------------------------------|
G|-55/99-5/99-5/12121212-77-7-7-77---|
D|-55/99-5/99-5/12121212-77-7-7-77---|
A|-33/77-3/77-3/10101010-55-5-5-55---|
E|-----------------------------------|

Outro
e|----------------------| do this how many times it plays it in the song
B|----------------------| then go onto the next bit, which is...
G|-9~\7-xxx-10~\9-xxx---|
D|-9~\7-xxx-10~\9-xxx---|
A|-7~\5-xxx-8-~\7-xxx---|
E|----------------------|

...this
e|-----------------------------------| strum faster everytime until the next
B|-----------------------------------| bit which is...
G|-9-9-99-7-7-77-10-10-1010-9-9-99---|
D|-x-x-xx-x-x-xx-xx-xx-xxxx-x-x-xx---|
A|-7-7-77-5-5-55-8--8--8-8--7-7-77---|
E|-----------------------------------|

...this
e|-------------------------------------------|
B|-------------------------------------------|
G|-9-9-99-10-10-1010-12-12-1212-14-14-1414---|
D|-x-x-xx-xx-xx-xxxx-xx-xx-xxxx-xx-xx-xxxx---|
A|-7-7-77-8--8--8-8--10-10-1010-12-12-1212---|
E|-------------------------------------------|

and then the extra finger picking bit after the strumming

e|---------------------------------------|
B|---------------------------------------|
G|-9h10p9-7-7------9h10p9-7-5h7p5--------|
D|------------7-10----------------7-10---|
A|---------------------------------------|
E|---------------------------------------|

e|------------------------------------------|
B|-------------------------------------10---|
G|-9h10p9-7-7------9h10p9-7-5h7p5------10---|
D|------------7-10----------------7-10------|
A|------------------------------------------|
E|------------------------------------------|

Order:

Intro/Verse
Chorus
Intro/Verse
Chorus
Bridge
Intro/Verse
Outro



| /  slide up
| \  slide down
| h  hammer-on
| p  pull-off
| ~  vibrato
| +  harmonic
| x  Mute note
============================================================================
Добавлено: 12.07.2012
Другие материалы по этой песне:

Страница создана 26.04.2012
http://primanota.ru/enter-shikari/the-bearer-of-bad-news-chords.htm
Привет, Гость.
Предлагаем пройти революционный курс по гитаре.
Подарок от PrimaNota.Ru, забирай!