PrimaNota.ru - самый крупный в мире бесплатный архив песенных текстов, аккордов, табулатур и нот


Enter Shikari - Solidarity - текст песни, таба, бас-таба, видео

Регистрация Запомнить меня
Войти через:  Facebook Google Twitter Vk Yandex Mail.ru

Enter Shikari - Solidarity - текст песни, таба, бас-таба, видео

Печатать
Просмотров: 314
-------------------------------------------------------------------------------
                             SOLIDARITY - Enter Shikari
-------------------------------------------------------------------------------

I'm aware this song isn't technically out yet, but I've heard it live,
and heard a lot of live recordings. I love this song.
Sounds accurate to me, comment and rate, kfx! :D

Tuning: CGCFAD

- INTRO -
D|---------------------------------------------------------------------------|
A|---------------------------------------------------------------------------|
F|---------------------------------------------------------------------------|
C|--------------2------------------------x8----------------------------------|
G|-0-0-00--0-0-----3-------0-0-----------------------------------------------|
C|-0-0-00--0-0--------5-0--0-0-----------------------------------------------|

- INTRO (ptII / tapping bit) -
Obviously, tap it all.
D|---------------------------------------------------------------------------|
A|---------------------------------------------------------------------------|
F|---------------------------------------------------------------------------|
C|-7-0-3-0-7-0-3-0-8-0-3-0-5-0-3-0--5-0-2-0-5-0-2-0-3-0-5-0-3-0-3-0--x2------|
G|---------------------------------------------------------------------------|
C|---------------------------------------------------------------------------|

It might also be played like this, the studio version sounds different.
D|---------------------------------------------------------------------------|
A|---------------------------------------------------------------------------|
F|---------------------------------------------------------------------------|
C|-7-0-3-0-7-0-3-0-8-0-3-0-5-0-3-0--7-0-3-0-8-0-3-0-10-0-3-0-8-0-3-0--x2------|
G|---------------------------------------------------------------------------|
C|---------------------------------------------------------------------------|

Basically, tap the notes in the C minor scale*, with the 3rd fret as the note that
you hammer-on to, then pull off to the open.
*Tap the 5, the 7, the 8, the 10 and if you're feeling saucy, the octave - 12.

- BREAKDOWN -
Bend the strings behind the nut to get the C#, the 1.
Maybe a floating trem could be used, I don't have one. D:
D|--------------------------------------------------------------------------|
A|--------------------------------------------------------------------------|
F|--------------------------------------------------------------------------|
C|-0-----------0----/1-----\0-----x-----------------------------------------|
G|-0-----------0----/1-----\0-----x--x2-------------------------------------|
C|-0-----------0----/1-----\0-----x-----------------------------------------|

D|---------------------------------------------------------------------------|
A|---------------------------------------------------------------------------|
F|---------------------------------------------------------------------------|
C|---------------------------------------------------------------------------|
G|-0-0-0-0---0-0-00-1-1-11-0-0-0-0---------0-0-0-0--0-0-00-1-1-11-0-0-0-0----|
C|-0-0-0-0---0-0-00-1-1-11-0-0-0-0---------0-0-0-0--0-0-00-1-1-11-0-0-0-0----|

Sometimes live Rory throughs in a pinch harmonic at the synth part.
Palm mute the low C-only open notes.
D|---------------------------------------------------------------------------|
A|---------------------------------------------------------------------------|
F|---------------------------------------------------------------------------|
C|-0-0----0-0----0-0----1-1----0-0----0-0----0-0----1-1----------------------|
G|-0-0----0-0----0-0----1-1----0-0----0-0----0-0----1-1----------------------|
C|-0-0--0-0-0--0-0-0--0-1-1--0-0-0--0-0-0--0-0-0--0-1-1--0-------------------|


D|---------------------------------------------------------------------------|
A|---------------------------------------------------------------------------|
F|---------------------------------------------------------------------------|
C|-0-0----0-0----0-0----1-1----0-0----0-0------------------------------------|
G|-0-0----0-0----0-0----1-1----0-0----0-0-----fill---------------------------|
C|-0-0--0-0-0--0-0-0--0-1-1--0-0-0--0-0-0------------------------------------|

Yeeeaaah, I'm too lazy to work out the fill, but that means you'll make it your own! :D
At least that's my excuse. It does sound better, and is more satisfying, to play your own fills.
Rory uses a SikTh-like tap-pull-hammer, string up, tap-pull-hammer thing.
I know the SikTh guitarist did have some influence on that ;)
I think that do do this it's some sort of 10 0 3 7 3 0 11 0 4 8 4 0 thing,
where it's a regular minor tap then up one chromatically, but I'unno.

- Final Part -
D|--------------------------------------------------------------------------|
A|-10---10-10------10----10-10----------------------------------------------|
F|-10---12b12b-----10----12b12b---------------------------------------------|
C|--------------------------------------------------------------------------|
G|--------------------------------------------------------------------------|
C|--------------------------------------------------------------------------|
Bend the 12's on the F string up a note, to match the 10 on the A string.
This part sounds strange without everyone singing and the rest of the instruments.
That's all the guitar's doing though.
Variate it, keep yourself interested!

D|--------------------/13--10-h12----------------------------------------|
A|-10---10-10----10---------------------10-10------10--13--10------------|
F|-10---12b12b---10----------------10---12b12b-----12b-----12br--10~-----|
C|-----------------------------------------------------------------------|
G|-----------------------------------------------------------------------|
C|-----------------------------------------------------------------------|


Y'know? Just things like that. It definitely keeps you interested, it's
a fairly boring part to play as a guitarist.
Anyway, I hope you enjoyed this tab, it's an excellent song.


- INTRO - Here tonight I clock a thousand heads
Here to unite, through common dreads
Now who's with me? (Ho!)
Now who's with me? (Ho!)

- INTRO (ptII) - Something sits inside, that's been growing for a thousand years
Now we can no longer hide the immediacy of these fears
Our names will not be written on water
And we don't need an ally (No way!)
One day I know, the dam will collapse
And we will beat the current!

- BREAKDOWN - Yes... what have you got for me?
Oooh! (live, YES MAN!)

And now the flood gates will open
RRRAAAAAHHHHHHHHH! (Inhale scream)
You cannot hold back the tide!
You cannot hold back the tide!

- Final Part - We will sing as one in solidarity! We will stand together,
No longer treading water, we're flowing with the tide!
And you can taste the night, don't waste the night!

And still we will be here, (we're not hiding) standing like statues

Solidarity, solidarity, we will stand together (We're not hiding)
(And still we will be here, standing like statues)

:D xox

| /  slide up
| \  slide down
| h  hammer-on
| p  pull-off
| ~  vibrato
| +  harmonic
| x  Mute note
===============================================================================
Добавлено: 31.07.2012
Другие материалы по этой песне:

Страница создана 06.04.2012
http://primanota.ru/enter-shikari/solidarity-chords.htm
Привет, Гость.
Предлагаем пройти революционный курс по гитаре.
Подарок от PrimaNota.Ru, забирай!